Slipknot

home > Slipknot

The One That Kills The Least Tab

Slipknot

Difficulty: nolevelnolevel

by gustsilva

tuner correct add songbook print version text version save to e-mail
chordsukulelecavacokeyboardtabbassdrumsharmonicsflute Guitar Pro
chords

The One That Kills The Least

  		SLIPKNOT 

THE ONE THAT KILLS THE LEAST 


B-F#-B-E-G#-C# 


TABBED BY andherembrace 








1 
---------------------------------------------------------------------------------| 
---------------------------------------------------------------------------------| 
---------------------------------------------------------------------------------| 
---------------------------------------------------------------------------------| 
---------------------------------------------------------------------------------| 
-/8-------7-8-7--1---------------0-----------------------------------------------| 

2 
---------------------------------------------------------------------------------| 
---------------------------------------------------------------------------------| 
-15--15--15--15--15--15--15--15--14-14-12-12-15-15-12-12-14-14-12-12-15-15-12-12-| 
---------------------------------------------------------------------------------| 
---------------------------------------------------------------------------------| 
---------------------------------------------------------------------------------| 
   |   |   |   |   |   |   |   | 




1 
---------------------------------------------------------------------------------| 
---------------------------------------------------------------------------------| 
---------------------------------------------------------------------------------| 
---------------------------------------------------------------------------------| 
---------------------------------------------------------------------------------| 
-/8----------------------\-------------------------------------------------------| 

2 
---------------------------------------------------------------------------------| 
-----------------------------------^-----^-----^-----^-----^-----^-----^-----^---| 
-15--15--15--15--15--15--15--15--14-15-14-15-14-15-14-15-14-15-14-15-14-15-14-15-| 
---------------------------------------------------------------------------------| 
---------------------------------------------------------------------------------| 
---------------------------------------------------------------------------------| 
   |   |   |   |   |   |   |   | 




0:15 

1 
---------------------------------------------------------------------------------| 
---------------------------------------------------------------------------------| 
---------------------------------------------------------------------------------| 
---------------------------------------------------------------------------------| 
---------------------------------------------------------------------------------| 
-/8-------7-8-7--1---------------0-----------------------------------------------| 

2 
---------------------------------------------------------------------------------| 
---------------------------------------------------------------------------------| 
-15--15--15--15--15--15--15--15--14-14-12-12-15-15-12-12-14-14-12-12-15-15-12-12-| 
---------------------------------------------------------------------------------| 
---------------------------------------------------------------------------------| 
---------------------------------------------------------------------------------| 
   |   |   |   |   |   |   |   | 






1 
---------------------------------------------------------------------------------| 
---------------------------------------------------------------------------------| 
---------------------------------------------------------------------------------| 
---------------------------------------------------------------------------------| 
---------------------------------------------------------------------------------| 
-/8-------7-8-7--1----------1-3-0------------------------------------------------| 

2 
---------------------------------------------------------------------------------| 
-----------------------------------^-----^-----^-----^-----^-----^-----^-----^---| 
-15--15--15--15--15--15--15--15--14-15-14-15-14-15-14-15-14-15-14-15-14-15-14-15-| 
---------------------------------------------------------------------------------| 
---------------------------------------------------------------------------------| 
---------------------------------------------------------------------------------| 
   |   |   |   |   |   |   |   | 




1 
---------------------------------------------------------------------------------| 
---------------------------------------------------------------------------------| 
---------------------------------------------------------------------------------| 
-----------------__--------------------------------------------------------------| 
----------------/  \-------------------------------------------------------------| 
-/8----------7-8/10\8-7-------5-7-0----------------------------------------------| 

2 
---------------------------------------------------------------------------------| 
-----------------------------------^-----^-----^-----^-----^-----^-----^-----^---| 
-15--15--15--15--15--15--15--15--14-15-14-15-14-15-14-15-14-15-14-15-14-15-14-15-| 
---------------------------------------------------------------------------------| 
---------------------------------------------------------------------------------| 
---------------------------------------------------------------------------------| 
   |   |   |   |   |   |   |   | 





1 
---------------------------------------------------------------------------------| 
---------------------------------------------------------------------------------| 
----------------------------------10-10-10-9-9-9-7-7-7--7------------------------| 
-----------------------------------x--x--x-x-x-x-x-x-x--x------------------------| 
-----------------------------------8--8--8\7-7-7\5-5-5--5------------------------| 
-/8-------7-8-7--1----------1-3-0------------------------------------------------| 

2 
---------------------------------------------------------------------------------| 
-----------------------------------^-----^-----^-----^-----^-----^-----^-----^---| 
-15--15--15--15--15--15--15--15--14-15-14-15-14-15-14-15-14-15-14-15-14-15-14-15-| 
---------------------------------------------------------------------------------| 
---------------------------------------------------------------------------------| 
---------------------------------------------------------------------------------| 
   |   |   |   |   |   |   |   | 




1 
------------------------------------------------| 
------------------------------------------------| 
------------------------------------------------| 
-----------------__-----------------------------| 
----------------/  \----------------------------| 
-/8----------7-8/10\8-7-------7-8-12--10--8--7--| 

2 
------------------------------------------------| 
------------------------------------------------| 
-15--15--15--15--15--15--15--15-----------------| 
------------------------------------------------| 
----------------------------------5--7--8--7----| 
------------------------------------------------| 
   |   |   |   |   |   |   |   | 







0:44 


--------------------------------------------------------------------| 
--------------------------------------------------------------------| 
--------------------------------------------------------------------| 
--------------------------------------------------------------------| 
------------8---------------8----------5----------------------------| 
-8-8-8--8-8-8\---8-8-8--8-8-8\---6-5-6---6-5-3-5-8-7-6-5-4-3-1-1-0--| 
 * * *  * *      * * *  * * 



------------------------------------------------------------| 
------------------------------------------------------------| 
---------------------7-5-5-8----------------------5-7-7-5---| 
--^---------^--------x-x-x-x---^---------^--------x-x-x-x---| 
-1-0-0--0--1-0-0--0--5\3-3/6--1-0-0--0--1-0-0--0--3/5-5\3---| 
-1-0-0--0--1-0-0--0-----------1-0-0--0--1-0-0--0------------| 
      |  |      |  |               |  |      |  | 

------------------------------------------------------------| 
------------------------------------------------------------| 
---------------------7-5-5-8----------------------5-7-7-5---| 
--^---------^--------x-x-x-x---^---------^--------x-x-x-x---| 
-1-0-0--0--1-0-0--0--5\3-3/6--1-0-0--0--1-0-0--0--3/5-5\3---| 
-1-0-0--0--1-0-0--0-----------1-0-0--0--1-0-0--0------------| 
      |  |      |  |               |  |      |  | 




1:10 


----------------------------------------------------------------| 
----------------------------------------------------------------| 
------------------------7-5-5-8------------------------5-7-7-5--| 
--^---------------------x-x-x-x---^--------------------x-x-x-x--| 
-1-0-0--0---------------5\3-3/6--1-0-0--0--------------3/5-5\3--| 
-1-0-0--0--/8-7~-0-1-3-----------1-0-0--0--/8-7~-0-1-3----------| 
      |  |                            |  | 

----------------------------------------------------------------| 
----------------------------------------------------------------| 
------------------------7-5-5-8------------------------5-7-7-5--| 
--^---------------------x-x-x-x---^--------------------x-x-x-x--| 
-1-0-0--0---------------5\3-3/6--1-0-0--0--------------3/5-5\3--| 
-1-0-0--0--/8-7~-0-1-3-----------1-0-0--0--/8-7~-0-1-3----------| 
      |  |                            |  | 




1:20 


1 
-----------------------------------------------------------| 
-----------------------------------------------------------| 
--15-----14-15-14-8-----8-10-7----10-10--9--9---7-7--7--7--| 
---x------x--x--x-x-----x-x--x-----x--x--x--x---x-x--x--x--| 
-/13-----12/13-12-6-----6/8--5-----8--8--7--7---5-5--5--5--| 
-----------------------------------------------------------| 
                                       \     \ 
2 
-----------------------------------------------------------| 
-----------------------------------------------------------| 
--15-----14-15-14-8-----8-10-7-----------------------------| 
---x------x--x--x-x-----x-x--x----12-12-10-10---7-7--7--7--| 
-/13-----12/13-12-6-----6/8--5-----8--8--7--7---5-5--5--5--| 
-----------------------------------------------------------| 
                                       \     \ 

1 
------------------__--------------------------------------------| 
-----------------/  \-------------------------------------------| 
--15-----14-15-15-17-15-12---10-12-7---10-10--9--9---7-7--7--7--| 
---x------x--x--x--x--x--x----x--x-x----x--x--x--x---x-x--x--x--| 
-/13-----12/13-13/15\13-10----8/10-5----8--8--7--7---5-5--5--5--| 
----------------------------------------------------------------| 
                                            \     \ 
2 
------------------__---------------------------------------------| 
-----------------/  \--------------------------------------------| 
--15-----14-15-15-17-15-12----10-12-7----------------------------| 
---x------x--x--x--x--x--x-----x--x-x---12-12-10-10---7-7--7--7--| 
-/13-----12/13-13-15\13-10-----8/10-5----8--8--7--7---5-5--5--5--| 
-----------------------------------------------------------------| 
                                             \     \ 





1 
-----------------------------------------------------------| 
-----------------------------------------------------------| 
--15-----14-15-14-8-----8-10-7----10-10--9--9---7-7--7--7--| 
---x------x--x--x-x-----x-x--x-----x--x--x--x---x-x--x--x--| 
-/13-----12/13-12-6-----6/8--5-----8--8--7--7---5-5--5--5--| 
-----------------------------------------------------------| 
                                       \     \ 
2 
-----------------------------------------------------------| 
-----------------------------------------------------------| 
--15-----14-15-14-8-----8-10-7-----------------------------| 
---x------x--x--x-x-----x-x--x----12-12-10-10---7-7--7--7--| 
-/13-----12/13-12-6-----6/8--5-----8--8--7--7---5-5--5--5--| 
-----------------------------------------------------------| 
                                       \     \ 

1 
------------------__--------------------------------------------| 
-----------------/  \-------------------------------------------| 
--15-----14-15-15-17-15-12---10-12-7---10-10--9--9---7-7--7--7--| 
---x------x--x--x--x--x--x----x--x-x----x--x--x--x---x-x--x--x--| 
-/13-----12/13-13/15\13-10----8/10-5----8--8--7--7---5-5--5--5--| 
----------------------------------------------------------------| 
                                            \     \ 
2 
------------------__---------------------------------------------| 
-----------------/  \--------------------------------------------| 
--15-----14-15-15-17-15-12----10-12-7----------------------------| 
---x------x--x--x--x--x--x-----x--x-x---12-12-10-10---7-7--7--7--| 
-/13-----12/13-13-15\13-10-----8/10-5----8--8--7--7---5-5--5--5--| 
-----------------------------------------------------------------| 
                                             \     \ 







1:44 


---------------------------------| 
---------------------------------| 
------------------------7-5-5-8--| 
------------------------x-x-x-x--| 
-1-0-0--0---------------5\3-3/6--| 
-1-0-0--0--/8-7~-0-1-3-----------| 
      |  |                           


---------------------------------------------------------------| 
---------------------------------------------------------------| 
-----------------------5-7-7-5-----------------------7-5-5-8---| 
--^----------^---------x-x-x-x---^---------^---------x-x-x-x---| 
-1-0-0--0---1-0-0--0---3/5-5\3--1-0-0--0--1-0-0--0---5\3-3/6---| 
-1-0-0--0---1-0-0--0------------1-0-0--0--1-0-0--0-------------| 
      |  |       |  |                |  |      |  | 


---------------------------------------------------------------| 
---------------------------------------------------------------| 
-----------------------5-7-7-5------------------------7-5-5-8--| 
--^----------^---------x-x-x-x---^--------------------x-x-x-x--| 
-1-0-0--0---1-0-0--0---3/5-5\3--1-0-0--0--------------5\3-3/6--| 
-1-0-0--0---1-0-0--0------------1-0-0--0--/8-7~-0-1-3----------| 
      |  |       |  |                |  |     


----------------------------------------------------------------| 
----------------------------------------------------------------| 
------------------------5-7-7-5-------------------------7-5-5-8-| 
--^---------------------x-x-x-x---^---------------------x-x-x-x-| 
-1-0-0--0---------------3/5-5\3--1-0-0--0---------------5\3-3/6-| 
-1-0-0--0--/8-7~-0-1-3-----------1-0-0--0--/8-7~-0-1-3----------| 
      |  |                            |  | 
                                       

---------------------------------| 
---------------------------------| 
------------------------5-7-7-5--| 
--^---------------------x-x-x-x--| 
-1-0-0--0---------------3/5-5\3--| 
-1-0-0--0--/8-7~-0-1-3-----------| 
      |  |           




2:08 




1 
-----------------------------------------------------------| 
-----------------------------------------------------------| 
--15-----14-15-14-8-----8-10-7----10-10--9--9---7-7--7--7--| 
---x------x--x--x-x-----x-x--x-----x--x--x--x---x-x--x--x--| 
-/13-----12/13-12-6-----6/8--5-----8--8--7--7---5-5--5--5--| 
-----------------------------------------------------------| 
                                       \     \ 
2 
-----------------------------------------------------------| 
-----------------------------------------------------------| 
--15-----14-15-14-8-----8-10-7-----------------------------| 
---x------x--x--x-x-----x-x--x----12-12-10-10---7-7--7--7--| 
-/13-----12/13-12-6-----6/8--5-----8--8--7--7---5-5--5--5--| 
-----------------------------------------------------------| 
                                       \     \ 

1 
------------------__--------------------------------------------| 
-----------------/  \-------------------------------------------| 
--15-----14-15-15-17-15-12---10-12-7---10-10--9--9---7-7--7--7--| 
---x------x--x--x--x--x--x----x--x-x----x--x--x--x---x-x--x--x--| 
-/13-----12/13-13/15\13-10----8/10-5----8--8--7--7---5-5--5--5--| 
----------------------------------------------------------------| 
                                            \     \ 
2 
------------------__---------------------------------------------| 
-----------------/  \--------------------------------------------| 
--15-----14-15-15-17-15-12----10-12-7----------------------------| 
---x------x--x--x--x--x--x-----x--x-x---12-12-10-10---7-7--7--7--| 
-/13-----12/13-13-15\13-10-----8/10-5----8--8--7--7---5-5--5--5--| 
-----------------------------------------------------------------| 
                                             \     \ 





2:30 




------------------------------------------------------------| 
------------------------------------------------------------| 
------------------------------------------------------------| 
------------------------------------------------------------| 
-------5----------------------------------------------------| 
-6-5-6---6-5-3-5-8-7-6-5-4-3-1-1-0---5-5-4-4---0---5-5-7-4--| 


------------------------------------------------------------| 
------------------------------------------------------------| 
------------------------------------------------------------| 
------------------------------------------------------------| 
-------5----------------------------------------------------| 
-6-5-6---6-5-3-5-8-7-6-5-4-3-1-1-0---5-5-4-4---0---5-5-7-4--| 






2:43 

1 
----------------------------------------------------------------| 
----------------------------------------------------------------| 
------------------------7-5-5-8------------------------5-7-7-5--| 
------------------------x-x-x-x------------------------x-x-x-x--| 
-1-0-0--0---------------5\3-3/6--1-0-0--0--------------3/5-5\3--| 
-1-0-0--0--/8-7~-0-1-3-----------1-0-0--0--/8-7~-0-1-3----------| 
      |  |                            |  | 
2 
-------------------------------------H--------------------------| 
-----------------------------------///--------------------------| 
-----------------------------------2-/------------------------| 
----------------------------------------------------------------| 
----------------------------------------------------------------| 
----------------------------------------------------------------| 

1 
----------------------------------------------------------------| 
----------------------------------------------------------------| 
------------------------7-5-5-8------------------------5-7-7-5--| 
------------------------x-x-x-x------------------------x-x-x-x--| 
-1-0-0--0---------------5\3-3/6--1-0-0--0--------------3/5-5\3--| 
-1-0-0--0--/8-7~-0-1-3-----------1-0-0--0--/8-7~-0-1-3----------| 
      |  |                            |  | 
2 
----------------------------------------------------------------| 
-///--------///----------------///------///-///-///-///---------| 
/15----------14----------------17--------15--17--14--15---------| 
----------------------------------------------------------------| 
----------------------------------------------------------------| 
----------------------------------------------------------------| 


1 
----------------------------------------------------------------| 
----------------------------------------------------------------| 
------------------------7-5-5-8------------------------5-7-7-5--| 
------------------------x-x-x-x------------------------x-x-x-x--| 
-1-0-0--0---------------5\3-3/6--1-0-0--0--------------3/5-5\3--| 
-1-0-0--0--/8-7~-0-1-3-----------1-0-0--0--/8-7~-0-1-3----------| 
      |  |                            |  | 
2 
----------------------------------------------------------------| 
-///--------///-------------///-------------///-----------------| 
-7-----------9---------------10-------------12------12~~---\--| 
----------------------------------------------------------------| 
----------------------------------------------------------------| 
----------------------------------------------------------------| 








3:00 


SOLO __________________________       _____ 
    /                          \     /     \      __________ 
--10-11-10-11-13-11-10-11-10-------10-11-10------/          \-----------| 
/----------------------------13-11----------13-10-11-10------------^----| 
--------------------------------------------------------12-10----10-12--| 
--------------------------------------------------------------13--------| 
------------------------------------------------------------------------| 
------------------------------------------------------------------------| 

    __________ 
---/          \-----------------------------------------------------------------| 
-10-11-10------------_____-------_____--------15--15/17---17\15--15----13/15-15-| 
----------12-10-----/     \-----/     \-----------------------------------------| 
---------------13-12-13-12----12-13-15-13-12----12-----14------12---10----------| 
---------------------------13---------------------------------------------------| 
--------------------------------------------------------------------------------| 

   
            ________       _______________      _____       ______________________ 
           /        \     /               \    /     \     /                      \    ^ 
10------10-12-13-12-10-12-13-15-13-12--------12-13-15-12/17-15-13-15-13--------------13-15-| 
--13--13-----------------------------15-13-15--------------------------17-15-13-15-17------| 
----12-------------------------------------------------------------------------------------| 
-------------------------------------------------------------------------------------------| 
-------------------------------------------------------------------------------------------| 
-------------------------------------------------------------------------------------------| 
                            _____ 
                           /     \ 
17/18-17--15-15\13-13\12-12-13-12-10-------------| 
-------------------------------------13/15-15~---| 
-------------------------------------------------| 
-------------------------------------------------| 
-------------------------------------------------| 
-------------------------------------------------| 


rythm during solo 
-----------------------------------------------------| 
-----------------------------------------------------| 
-------------------------10-10-10-9--9-9-7--7-7--7---| 
--------------------------x--x--x-x--x-x-x--x-x--x---| 
--8----7-8-7--1----1-3-0--8--8--8\7--7-7\5--5-5--5---| 
-/8----7-8-7--1----1-3-0-----------------------------| 


----------------------------------------------------------| 
----------------------------------------------------------| 
------------------------------10-10-10-12-12-12-7-7-7--7--| 
-------------------------------x--x--x--x--x--x-x-x-x--x--| 
--8----7-8-8-10-8-7----5-7-0---8--8--8/10-10-10\5-5-5--5--| 
-/8----7-8-8/10\8-7----5-7-0------------------------------| 







3:13 


1 
-----------------------------------------------------| 
-----------------------------------------------------| 
-------------------------10-10-10-9--9-9-7--7-7--7---| 
--------------------------x--x--x-x--x-x-x--x-x--x---| 
--8----7-8-7--1----1-3-0--8--8--8\7--7-7\5--5-5--5---| 
-/8----7-8-7--1----1-3-0-----------------------------| 

2 
-----------------------------------------------------| 
--------^-----------^--------------------------------| 
-/15--14-15-14-8---8-10-7-------------------------5/-| 
-----------------------------------------------------| 
-----------------------------------------------------| 
-----------------------------------------------------| 


1 
----------------------------------------------------------| 
----------------------------------------------------------| 
------------------------------10-10-10-12-12-12-7-7-7--7--| 
-------------------------------x--x--x--x--x--x-x-x-x--x--| 
--8----7-8-8-10-8-7----5-7-0---8--8--8/10-10-10\5-5-5--5--| 
-/8----7-8-8/10\8-7----5-7-0------------------------------| 

2 
----------------------------------------------------------| 
----------------------------------------------------------| 
-15---14-15-15/17\15-12~-----14/15-14---------------------| 
----------------------------------------------------------| 
----------------------------------------------------------| 
----------------------------------------------------------| 




3:25 

1 
-----------------------------------------------------| 
-----------------------------------------------------| 
-------------------------10-10-10-9--9-9-7--7-7--7---| 
--------------------------x--x--x-x--x-x-x--x-x--x---| 
--8----7-8-7--1----1-3-0--8--8--8\7--7-7\5--5-5--5---| 
-/8----7-8-7--1----1-3-0-----------------------------| 

2 
-----------------------------------------------------| 
-----------------------------------------------------| 
///--/////////----///----------------///--///--///---| 
-8----7-8-10-------12-----------------15---14--12----| 
-----------------------------------------------------| 
-----------------------------------------------------| 


1 
----------------------------------------------------------------| 
----------------------------------------------------------------| 
------------------------------10-10-10-12-12-12-14-14-14-15-14--| 
-------------------------------x--x--x--x--x--x--x--x--x--x--x--| 
--8----7-8-8-10-8-7----5-7-0---8--8--8/10-10-10/12-12-12/13-12--| 
-/8----7-8-8/10\8-7----5-7-0------------------------------------| 

2                                        tr~~~ 
----------------------------------------1718--------------------------| 
-///-///-------///----------------------------------------------------| 
-----------///-14-----------14~~-------------14-17-15-14-15-14--------| 
-17---14---15-------------------------------------------------17-\----| 
----------------------------------------------------------------------| 
----------------------------------------------------------------------| 





3:36 




----------------------------------------------------------------| 
----------------------------------------------------------------| 
------------------------7-5-5-8------------------------5-7-7-5--| 
--^---------------------x-x-x-x---^--------------------x-x-x-x--| 
-1-0-0--0---------------5\3-3/6--1-0-0--0--------------3/5-5\3--| 
-1-0-0--0--/8-7~-0-1-3-----------1-0-0--0--/8-7~-0-1-3----------| 
      |  |                            |  | 



---------------------------------------------------------------| 
---------------------------------------------------------------| 
-----------------------7-5-5-8------------------------5-7-7-5--| 
--^----------^---------x-x-x-x---^----------^---------x-x-x-x--| 
-1-0-0--0---1-0-0--0---5\3-3/6--1-0-0--0---1-0-0--0---3/5-5\3--| 
-1-0-0--0---1-0-0--0------------1-0-0--0---1-0-0--0------------| 
     
   
---------------------------------------------------------------| 
---------------------------------------------------------------| 
-----------------------7-5-5-8------------------------5-7-7-5--| 
--^----------^---------x-x-x-x---^----------^---------x-x-x-x--| 
-1-0-0--0---1-0-0--0---5\3-3/6--1-0-0--0---1-0-0--0---3/5-5\3--| 
-1-0-0--0---1-0-0--0------------1-0-0--0---1-0-0--0------------| 
       




------------------------------------------------------------------| 
------------------------------------------------------------------| 
-------------------------7-5-5-8-------------------------5-7-7-5--| 
--^-----------^----------x-x-x-x--^-----------^----------x-x-x-x--| 
-1-0-0-0-0-0-1-0-0-0-0-0-5\3-3/6-1-0-0-0-0-0-1-0-0-0-0-0-3/5-5\3--| 
-1-0-0-0-0-0-1-0-0-0-0-0---------1-0-0-0-0-0-1-0-0-0-0-0----------| 

     * * * *     * * * *             * * * *     * * * *  

------------------------------------------------------------------| 
------------------------------------------------------------------| 
-------------------------7-5-5-8-------------------------5-7-7-5--| 
--^-----------^----------x-x-x-x--^-----------^----------x-x-x-x--| 
-1-0-0-0-0-0-1-0-0-0-0-0-5\3-3/6-1-0-0-0-0-0-1-0-0-0-0-0-3/5-5\3--| 
-1-0-0-0-0-0-1-0-0-0-0-0---------1-0-0-0-0-0-1-0-0-0-0-0----------| 

     * * * *     * * * *             * * * *     * * * * 
	  

Full key step upFull key step up
Half key step upHalf key step up
Half key step downHalf key step down
Full key step downFull key step down
Search Paypal
auto scroll beats size up size down change color hide chords drawings
tab show chords e-chords YouTube Clip e-chords hide all tabs e-chords go to top tab