Slipknot

home > Slipknot

Pulse Of The Maggots (easy) Tab

Slipknot

Difficulty: BeginnerBeginner

by niko1702

tuner correct add songbook print version text version save to e-mail
chordsukulelecavacokeyboardtabbassdrumsharmonicsflute Guitar Pro
chords

Pulse Of The Maggots (easy)

  		INTRO  
-------------------------------------------------------------------------------|  
-------------------------------------------------------------------------------|  
-------------------------------------------------------------------------------|  
-------------------------------------------------------------------------------|  
-------------------------------------------------------------------------------|  
-0---0---------------0---1-1-1-1-0---0---0---3///////////13~~~~~---------------|  
 x   x               x   x x x x x   x   x  
  
-------------------------------------------------------------------------------|  
-------------------------------------------------------------------------------|  
-------------------------------------------------------------------------------|  
-------------------------------------------------------------------------------|  
-------------------------------------------------------------------------------|  
-0---0---------------0---1-1-1-1-0---0---0---3///////////13p-12----------------|  
 x   x               x   x x x x x   x   x  
  
-------------------------------------------------------------------------------|  
-------------------------------------------------------------------------------|  
-----------------------------------------------------------------3-----4-----5-|  
-----------------------------------------------------------------3-----4-----5-|  
-13p-12--13p-12--13p-12--13p-12--13p-12--13p-12--13p-12--13------1-----2-----3-|  
-------------------------------------------------------------------------------|  
                                                                 x     x     x  
  
-------------------------------------------------------------------------------|  
-------------------------------------------------------------------------------|  
-------------------------------------------------------------------------------|  
-------------------------3-----3-----3-----4-----3-----1-----------------------|  
-1-1-1---3-3-3---4-4-4---3-----3-----3-----4-----3-----1-----------------------|  
-------------------------3-----3-----3-----4-----3-----1-----------------------|  
 x x x   x x x   x x x   x     x     x     x     x     x  
  
VERSE  
-------------------------------------------------------------------------------|  
-------------------------------------------------------------------------------|  
-------------------------------------------------------------------------------|  
-----------------------------------------------------0---1---3---4---3---1---0-|  
-----------------------------------------------------0---1---3---4---3---1---0-|  
-0---0---------------0---1-1-1-1-0---0---------------0---1---3---4---3---1---0-|  
 x   x               x   x x x x x   x  
  
-------------------------------------------------------------------------------|  
-------------------------------------------------------------------------------|  
-------------------------------------------------------------------------------|  
-------------------------------------------------------------------------------|  
-------------------------------------------------------------------------------|  
-----0---1-1-1-1-0---0---0---3///////////13------------------------------------|  
     x   x x x x x   x   x  
  
-------------------------------------------------------------------------------|  
-------------------------------------------------------------------------------|  
-------------------------------------------------------------------------------|  
-----------------------------------------------------0---1---3---4---3---1---0-|  
-----------------------------------------------------0---1---3---4---3---1---0-|  
-0---0---------------0---1-1-1-1-0---0---------------0---1---3---4---3---1---0-|  
 x   x               x   x x x x x   x  
  
-------------------------------------------------------------------------------|  
-------------------------------------------------------------------------------|  
-------------------------------------------------------------------------------|  
-------------------------------------------------------------------------------|  
-------------------------------------------------------------------------------|  
-----0---1-1-1-1-0---0---0---3///////////13p-12--------------------------------|  
     x   x x x x x   x   x  
  
Chorus  
-------------------------------------------------------------------------------|  
-------------------------------------------------------------------------------|  
-------------------------------------------------------------------------------|  
-6-----------5-------6---3-----------3-----------1---0-------------------------|  
-6-----------5-------6---3-----------3-----------1---0-------------------------|  
-6-----------5-------6---3-------5---3-------0---1p--0-------------------------|  
                                 x           x  
  
REFRAIN  
Right Guitar  
-------------------------------------------------------------------------------|  
-------------------------------------------------------------------------------|  
-------------------------------------------------------------------------------|  
-------------------------------------------------------------------------------|  
---------3-----------2-------3---0-------2---0---------------------------------|  
-------------------------------------------------4-------1p--0-----------------|  
         ................................................  
  
Left Guitar  
-------------------------------------------------------------------------------|  
-------------------------------------------------------------------------------|  
---------10----------9-------10--7-------9---7---------------------------------|  
-------------------------------------------------9-----------------------------|  
-------------------------------------------------------------------------------|  
-------------------------------------------------------------------------------|  
         ..............................................  
  
SOLO BACKING  
-------------------------------------------------------------------------------|  
-------------------------------------------------------------------------------|  
-3---5---3---6-----------------------------------------------------------------|  
-2---4---2---5-----------------------------------------------------------------|  
-1///3\\\1///4-------4---4---4---4---4---4---4---4---4---4---4-----------------|  
-------------------------------------------------------------------------------|  
                     x   x   x   x   x   x   x   x   x   x   x  
  
-------------------------------------------------------------------------------|  
-------------------------------------------------------------------------------|  
-3---5---3---6-------------------------------3---------------------------------|  
-2---4---2---5---------------0---------------2---------------------------------|  
-1///3\\\1///4-------4---4---0---------------1-------1---1---1-----------------|  
-----------------------------0-------0---0-------------------------------------|  
                     x   x           x   x           x   x   x  
  
-------------------------------------------------------------------------------|  
-------------------------------------------------------------------------------|  
-3---5---3---6---6-------6-------6-------6-------6-------6---------------------|  
-2---4---2---5-------5-------5-------5-------5-------5-------5-----------------|  
-1///3\\\1///4-----------------------------------------------------------------|  
-------------------------------------------------------------------------------|  
  
-------------------------------------------------------------------------------|  
---------------------------------------------5~~~~~~~~~~~~~~~~~~~--------------|  
-3---5---3---6-------------------------------3~~~~~~~~~~~~~~~~~~~--------------|  
-2---4---2---5---------------0-------------------------------------------------|  
-1///3\\\1///4-------4---4---0-------------------------------------------------|  
-----------------------------0-------0---0-------------------------------------|  
                     x   x           x   x  
  
POST SOLO  
-------------------------------------------------------------------------------|  
-------------------------------------------------------------------------------|  
-------------------------------------------------------------------------------|  
-----1-----------------------------------------------1-------3-------4---------|  
-----1-----------------------------------------------1-------3-------4---------|  
-0---1---0---3~~~~~~-----0---0---0---0---3~~~~~~-----1-------3-------4---------|  
 x       x   ph.         x   x   x   x   ph. 
	  

Search Paypal
auto scroll beats size up size down change color hide chords drawings
tab show chords e-chords YouTube Clip e-chords hide all tabs e-chords go to top tab