Slipknot

home > Slipknot

People = Shit 2 Tab

Slipknot

Difficulty: nolevelnolevel

by %2DxXx%2D

tuner correct add songbook print version text version save to e-mail
chordsukulelecavacokeyboardtabbassdrumsharmonicsflute Guitar Pro
chords

People = Shit 2

  		C#|-------------------------------------|  
G#|-------------------------------------|  
E |-------------------------------------|  
B |-3p2--0-6p5--0-3p2--0-6p5--0-3-3-3-3-|  
F#|-3p2--0-6p5--0-3p2--0-6p5--0-3-3-3-3-|  
B |-3p2--0-6p5--0-3p2--0-6p5--0-3-3-3-3-|  
 
C#|-------------------------|  
G#|-------------------------|  
E |-------------444-5-------|  
B |-000-1-000-1-444-5-333-2-|  
F#|-000-1-000-1-222-3-333-2-|  
B |-000-1-000-1-------333-2-|  
 
C#|------6b-|  
G#|---------|  
E |-3b------|  
B |---------|  
F#|---------|  
B |---------| 
 
 
G#|---------------------|  
E |---------------------|  
B |---------------------|  
F#|---------------------|  
B |-0-1-0-1br--0-1-0-4b-|  
 
C#|----------------------|  
G#|----------------------| 
E |----------------------|  
B |-0-1-0-0-1--0-1-0-0-5-|  
F#|-0-1-0-0-1--0-1-0-0-5-|  
B |-0-1-0-0-1--0-1-0-0-5-|  
 
C#|------------------|  
G#|-3---4------------|  
E |---------4---3----|  
B |------------------|  
F#|------------------|  
B |------------------|  
 
C#|--------|  
G#|--------|  
E |--------|  
B |-1-0--0-|  
F#|-1-0--0-|  
B |-1-0--0-|  
 
C#|-----------------|  
G#|-----------------|  
E |-----------------|  
B |-0-1-1---0-1-2---|  
F#|-0-1-1---0-1-2---|  
B |-0-1-1---0-1-2---|  
 
C#|------------------|  
G#|------------------|  
E |------------------|  
B |-8-0-9-0--0-5-5-7-|  
F#|----------0-5-5-7-|  
B |----------0-5-5-7-|  
 
C#|-------------|  
G#|-------------|  
E |-------------|  
B |-1-1-1-1-1-2-|  
F#|-1-1-1-1-1-2-|  
B |-1-1-1-1-1-2-|  
  
C#|------------------|  
G#|------------------|  
E |------------------|  
B |------------------|  
F#|------------------|  
B |-8-0-9-0--0-5-5-7-|  
 
 
 

	  

Search Paypal
auto scroll beats size up size down change color hide chords drawings
tab show chords e-chords YouTube Clip e-chords hide all tabs e-chords go to top tab