Silvertide

Blue Jeans

Silvertide

tabs

by  PAULANTUNES

save to print version add songbook text version e-mail correct tuner
chordsukulelecavacokeyboardtabbassdrumsharmonicaflute Guitar Pro
close

there isn't a video lesson for this song

chords

Blue Jeans

	  		E|---------------------2----|-------------------------| 
B|-------5------------------|-------------------------| 
G|----------6-------------4-|-------4--------------6--| 
D|----6-------------4-------|----------6--------7-----| 
A|-4-------------2----------|----6-----------7--------| 
E|--------------------------|-4-----------5-----------| 

E|----------------------------|-----------------------| 
B|----------------------------|-----------------------| 
G|-6-6--4-4-4-4---------------|-6-6--4-4-4-4----------| 
D|-6-6--4-4-4-4--6-6--7-7-7-7-|-6-6--4-4-4-4--6-------| 
A|-4-4--2-2-2-2--6-6--7-7-7-7-|-4-4--2-2-2-2--6-------| 
E|---------------4-4--5-5-5-5-|---------------4-------| 

:52 
E|--9--9--9----------------------------------|----------| 
B|-12b---12b------------12-------------------|-12b--15b-| 
G|----------------9-11b----11-11p9----9-9----|----------| 
D|-----------9/11------------------11-----11-|----------| 
A|-------------------------------------------|----------| 
E|-------------------------------------------|----------| 

1:31 
E|--9--9--9----------------------------------|----------| 
B|-12b---12b------------12-------------------|----------| 
G|----------------9-11b----11-11p9----9-9----|----------| 
D|-----------9/11------------------11-----11-|----------| 
A|-------------------------------------------|--2////---| 
E|-------------------------------------------|----------| 

E|-----9-9-----9-9-----9-9-----9-9-----9-9-----9-9-----9-9-----9-9-| 
B|-----9-9-----9-9-----9-9-----9-9-----9-9-----9-9-----9-9-----9-9-| 
G|-11b-----11b-----11b-----11b-----11b-----11b-----11b-----11b-----| 
D|-----------------------------------------------------------------| 
A|-----------------------------------------------------------------| 
E|-----------------------------------------------------------------| 

E|------------------|------------------------------------------------| 
B|-9h12p9-----------|------------------------------------------------| 
G|--------11-9-9----|------9------9------9----9-11-11b-9----9-11-11b-| 
D|---------------11-|-9h11---9h11---9h11---11------------11----------| 
A|------------------|------------------------------------------------| 
E|------------------|------------------------------------------------| 

E|------------------------9----9h12p9----9------19b-|----------| 
B|-----------12b--12-9-12---12--------12---12b------|----------| 
G|-9----9-11----------------------------------------|-9h11p9---| 
D|---11---------------------------------------------|----------| 
A|--------------------------------------------------|---trem---| 
E|--------------------------------------------------|----------| 

E|----------14b-14-12----------14b-14-12------| 
B|---------------------------------------14---| 
G|-11b-11-9-----------11b-11-9----------------| 
D|--------------------------------------------| 
A|--------------------------------------------| 
E|--------------------------------------------| 

2:14 
E|--9--9-----------------|----------| 
B|-12b---12b--12b-9------|----------| 
G|------------------11-9-|----------| 
D|-----------------------|-11\\\\\--| 
A|-----------------------|----------| 
E|-----------------------|----------| 

E|-------------|-------------|--------------|-------------| 
B|-------------|-------------|--------------|-------------| 
G|--------9----|--------9----|-------9h11-9-|--------9----| 
D|-/11-11---11-|-/11-11---11-|-11-11--------|-/11-11---11-| 
A|-------------|-------------|--------------|-------------| 
E|-------------|-------------|--------------|-------------| 

E|--------------------|-----------------------|--------------| 
B|--------------------|-----------------------|----------12b-| 
G|-------9----9-11-9--|-------11b-9----9-11-9-|-11b-11-9-----| 
D|-11-11---11---------|-11-11-------11--------|--------------| 
A|--------------------|-----------------------|--------------| 
E|--------------------|-----------------------|--------------| 

E|----------------------------------9------------------------| 
B|-12-9-------------12------12-9------12-9--------------12---| 
G|------11-9-11-11B----11-9------11--------11B-9----11B----9-| 
D|-----------------------------------------------11----------| 
A|-----------------------------------------------------------| 
E|-----------------------------------------------------------| 

E|------------------------------------------------------------| 
B|-----------------------12B-12-9H12P9----9-------------------| 
G|-11B-9----9-11B-9----9---------------11---11-9--------------| 
D|-------11---------11---------------------------11-11-9----9-| 
A|-------------------------------------------------------11---| 
E|------------------------------------------------------------| 

E|-------------------------------------------| 
B|-------------------------------------------| 
G|-------------------------------------------| 
D|--------------------11B-11B-12B--12B----11-| 
A|-11-9----9---------------------------------| 
E|------12---12-11-9-------------------------| 
		  

auto scroll beats size up size down change color hide chords drawings
tab show chords e-chords YouTube Clip e-chords hide all tabs e-chords go to top tab

share