Sevendust

Fear

Sevendust

tabs

by  ANDRSOUZA

save to print version add songbook text version e-mail correct tuner
chordsukulelecavacokeyboardtabbassdrumsharmonicaflute Guitar Pro
close

there isn't a video lesson for this song

chords

Fear

Key:  B More
Fear Key F#F#
Fear Key GG
Fear Key G#G#
Fear Key AA(one step down)
Fear Key A#A#(half step down)
Fear Key BB(original key)
Fear Key CC(half step up)
Fear Key C#C#(one step up)
Fear Key DD
Fear Key D#D#
Fear Key EE
Fear Key FF
	  		

Riff 1   "Seems as though you're here again..." 
C#|-------------------------------------------| 
G#|-------------------------------------------| 
 E|-------------------------------------------| 
 B|-2p0-2p0-2p0-2h3-0-0--0-2h3-0-0--0-2h3-0-0-| 
F#|-----------------0-0--0-----0-0--0-----0-0-| 
 B|-----------------0-0--0-----0-0--0-----0-0-| 
                    * *  *     * *  *     * * 

Play Riff 1 x4   "Always a step behind me..." 

Riff 2   "Creates a vision that blinds within..." 
C#|---------------------------------------------------| 
G#|---------------------------------------------------| 
 E|---------------------------------------------------| 
 B|-2p0-2p0-2p0-2h3-0-0-x-x-2h3-0-0-x-x-2h3-0-0-0-0-0-| 
F#|-2p0-2p0-2p0-2h3-0-0-x-x-2h3-0-0-x-x-2h3-0-0-0-0-0-| 
 B|-2p0-2p0-2p0-2h3-0-0-x-x-2h3-0-0-x-x-2h3-0-0-0-0-0-| 

Play Riff 2 x2   "If you could only see..." 

Riff 3   "The thought that burns inside..." 
C#|--------------------------------------------------| 
G#|--------------------------------------------------| 
 E|--------------------------------------------------| 
 B|--------------------------------------------------| 
F#|----------------------------------0-2-3-2---------| 
 B|-0--0-2b3-1-0--0-2b3-1-0--0-2b3-1---------2-3-2-1-| 

C#|-------------------------------------------------------| 
G#|-------------------------------------------------------| 
 E|-------------------------------------------------------| 
 B|-------------------------------------------------------| 
F#|-----------------------5-6-5-6-5-----------------------| 
 B|-0--0-2b3-1-0--0-2b3-1-----------6-5-3-5-3-5-3-5-3-5b6-| 

Play Riff 3 x2   "A sight that burns the eyes..." 
Play Riff 1 x1   "Flip the switch and start again..." 

Riff 4   "Get the feeling every now and then..." 
C#|-------------------------------------------| 
G#|-------------------------------------------| 
 E|-------------------------------------------| 
 B|-2p0-2p0-2p0-2h3-0-0--0-3h5-0-0--0-5h7-0-0-| 
F#|-----------------0-0--0-----0-0--0-----0-0-| 
 B|-----------------0-0--0-----0-0--0-----0-0-| 
                    * *  *     * *  *     * * 

Play Riff 1 x1   "That your eyes are watching me..." 
Play Riff 4 x1   "Creates a burning inside of me..." 
Play Riff 2 x2   "I wish that you could feel..." 
                  (slide down at the end of each time through this time) 
Play Riff 3 x2   "The thought that burns inside..." 

Riff 5 
C#|---------------------------------------------------------------| 
G#|---------------------------------------------------------------| 
 E|---------------------------------------------------------------| 
 B|-0-------------------------------------------------------------| 
F#|-0-----------------------------5-6-5-6-5-----------------------| 
 B|-0-0-0-0-0-0-0-0-0-0-0-0-0-0-0-----------6-5-3-5-3-5-3-5-3-5b6-| 
      * * * * * * * * * * * * * * 

Play Riff 5 x2 

Fill 1 
C#|------------------------| 
G#|------------------------| 
 E|------------------------| 
 B|-0~---------------------| 
F#|-0~---------------------| 
 B|-0~---------------------| 

Riff 6   "Of course I saw you stumble..." (fingerpicked clean, let all notes ring out) 
C#|-----------------------------------------------------| 
G#|-----------------------------------------------------| 
 E|-10--9\\7------2----3----10--9\\7--9--9b10-9--2----3-| 
 B|-----------------------------------------------------| 
F#|-----------------------------------------------------| 
 B|-12--10\8------3----5----12--10\8-------------3----5-| 

C#|---------------------------0---------0-| 
G#|-----------------------------------0---| 
 E|-10--9\\7--9--9b10-9--2--0----3--2-----| 
 B|---------------------------------------| x2 
F#|---------------------------------------| 
 B|-12--10\8-------------3-------5--------| 

Riff 7 
C#|--------------------------------------------------| 
G#|--------------------------------------------------| 
 E|--------------------------------------------------| 
 B|-2p0-2p0-2p0-2h3-0-0-x-x-2h3-0-0-x-x-5h7-0-0-0-\\-| 
F#|-----------------0-0-x-x-----0-0-x-x-----0-0-0-\\-| 
 B|-----------------0-0-x-x-----0-0-x-x-----0-0-0-\\-| 

Play Riff 7 x4 
Play Riff 3 x2   "The thought that burns inside..." 
Play Riff 5 x2 

Riff 8   "...you walk away..." 
C#|--------------------------------------------------------| 
G#|--------------------------------------------------------| 
 E|-----------------7---7\---------------------------------| 
 B|-0---------------x---x----------------------------------| 
F#|-0---------------5---5\-5-6-5-6-5-----------------------| 
 B|-0-0-0-0-0-0-0-0---0--------------6-5-3-5-3-5-3-5-3-5b6-| 
      * * * * * * *   * 

Play Riff 5 x2   "It's coming down, it's coming down..." 
                  (for the 2nd time through extend the palm muted part and gradually release it) 

Riff 9   "Of course I saw you stumble..." 
C#|------------------------------------------------------------| 
G#|------------------------------------------------------------| 
 E|-14--14-14--12--10--10-10-10--5--5-5-5/7-7-7-7\5-5-5-5--5-5-| 
 B|-x---x--x---x---x---x--x--x---x--x-x-x-x-x-x-x-x-x-x-x--x-x-| 
F#|-12--12-12--10--8---8--8--8---3--3-3-3/5-5-5-5\3-3-3-3--3-3-| 
 B|------------------------------------------------------------| 
                                 ^ ends here final time though and let ring 

C#|-------------------------------------------------------------------| 
G#|-------------------------------------------------------------------| 
 E|-14--14-14-14--12--12-12-12-12-12-12--15--15-15-15-14--12--7-7-7-7-| 
 B|-x---x--x--x---x---x--x--x--x--x--x---x---x--x--x--x---x---x-x-x-x-| 
F#|-12--12-12-12--10--10-10-10-10-10-10--13--13-13-13-12--10--5-5-5-5-| 
 B|-------------------------------------------------------------------| 

 
		  

See also:

tabs Slipknot - Duality(ver 2) tabs Slipknot - Surfacing tabs Rainbow - Long Live Rock N' Roll tabs Dream Theater - As I Am tabs Pantera - Hollow tabs Slipknot - The Blister Exists
e-chords

Other versions:

tabs Bon Jovi - Fear tabs Disturbed - Fear tabs Lenny Kravitz - Fear tabs Sevendust - Fear tabs Low - Fear tabs Disturbed - Fear (ver. 2)
auto scroll beats size up size down change color hide chords drawings
tab show chords e-chords YouTube Clip e-chords hide all tabs e-chords go to top tab

share