Sarah McLachlan

Black Bird

Sarah McLachlan

tabs Expert expert

save to print version add songbook text version e-mail correct tuner
chordsukulelecavacokeyboardtabbassdrumsharmonicaflute Guitar Pro
close

there isn't a video lesson for this song

chords

Black Bird

	  		 
e|----------------------------------------------- 
A|-2------3-----5s-14-----14-----14-----14------- 
D|-2---2--2--2--4--------------------------------2X 
G|----------------------------------------------- 
B|-0------2-----4------12-----12-----12---------- 
E|----------------------------------------------- 
 
e|----------------------------------------------- 
A|--7---10---9---12---10-----10----10-----10----- 
D|----------------------------------------------- 
G|----------------------------------------------- 
B|--5---6----7----8----9---9----9---8---8----8--- 
E|----------------------------------------------- 
 
e|----------------------------------------------- 
A|--9---10---7-----7---6-----6---5-----5----4---- 
D|----------------------------------------------- 
G|----------------------------------------------- 
B|--7---6----5--5----5-5---5---5-4---4---4--2--2- 
E|-----------------------------------------------  
 
e|----------------------------------------------- 
A|--4----3----3----2-----2----------------------- 
D|----------------------------------------------- 
G|----------------------------------------------- 
B|----2--2--2---2--0--0----0--------------------- 
E|----------------------------------------------- 
          ^^PRIMEIRA PARTE^^                  
e|-2---0----------------------------------------- 
A|---------4------4------3-----3-----2------2---- 
D|----------------------------------------------- 
G|-0--------------------------------------------- 
B|-----4---2---2----2----2---2---2---0---0----0-- 
E|----------------------------------------------- 
 
e|----------------------------------------------- 
A|-2------3-----5s-14-----14-----14-----14------- 
D|-2---2--2--2--4--------------------------------2X 
G|----------------------------------------------- 
B|-0------2-----4------12-----12-----12---------- 
E|----------------------------------------------- 
 
e|----------------------------------------------- 
A|--7---10---9---12---10-----10----10-----10----- 
D|----------------------------------------------- 
G|----------------------------------------------- 
B|--5---6----7----8----9---9----9---8---8----8--- 
E|----------------------------------------------- 
 
e|----------------------------------------------- 
A|--9---10---7-----7---6-----6---5-----5----4---- 
D|----------------------------------------------- 
G|----------------------------------------------- 
B|--7---6----5--5----5-5---5---5-4---4---4--2--2- 
E|-----------------------------------------------  
 
e|----------------------------------------------- 
A|--4----3----3----2-----2----------------------- 
D|----------------------------------------------- 
G|----------------------------------------------- 
B|----2--2--2---2--0--0----0--------------------- 
E|----------------------------------------------- 
 
e|--5---5---5---5-------------------------------- 
A|-----------------1----1-----3-----3------------ 
D|----------------------------------------------- 
G|--7---4---2---0-------------------------------- 
B|-----------------3--3---3---5---5----5--------- 
E|----------------------------------------------- 
 
e|--5---5---5---5-----------------------0----0---- 
A|-----------------1----1----0-----0-------------- 
D|------------------------------------------------ 
G|--7---4---2---0-----------------------2--2----2- 
B|-----------------3--3---3--2---2---2------------ 
E|------------------------------------------------ 
            repete a primeira parte 
 
e|--5---5---5---5-------------------------------- 
A|-----------------1----1-----3-----3------------ 
D|----------------------------------------------- 
G|--7---4---2---0-------------------------------- 
B|-----------------3--3---3---5---5----5--------- 
E|----------------------------------------------- 
 
e|--5---5---5---5-----------------------0----0--- 
A|-----------------1----1----0-----0------------- 
D|----------------------------------------------- 
G|--7---4---2---0-----------------------2--2----2 
B|-----------------3--3---3--2---2---2----------- 
E|----------------------------------------------- 
 
e|----------------------------------------------- 
A|--2-----3-----5s-14-----14------14-----14----14 
D|--2--2--2--2--4-------------------------------- 
G|----------------------------------------------- 
B|--0-----2-----4-----12------12------12----12--- 
E|----------------------------------------------- 
 
 
 
abraço pro meu companheiro de violão guilherme 
 
_______________________________________________________ 
Contribuição: Marcelo Barretto de Faria e Sousa([email protected]) 

		  

auto scroll beats size up size down change color hide chords drawings
tab show chords e-chords YouTube Clip e-chords hide all tabs e-chords go to top tab

share