Joni Mitchell

In France They Kiss On Main Street

Joni Mitchell

tabs

by  HUGO_RODRIGUES

save to print version add songbook text version e-mail correct tuner
chordsukulelecavacokeyboardtabbassdrumsharmonicaflute Guitar Pro
close

there isn't a video lesson for this song

chords

In France They Kiss On Main Street

	  		(/) Slide Up  (\) Slide Down  (h) Hammer On  (p) Pull Off  (b) Bend (r) Release (v) Vibrato 


E|---------------------------------------------------------------------14--12--14--16p14p12h14--| 
B|---------12--12--14--------------12--12--14--------------12--12--14---------------------------| 
G|--11/13--------------11v--11/13--------------11v--11/13---------------------------------------| 
D|----------------------------------------------------------------------------------------------| 
A|----------------------------------------------------------------------------------------------| 
E|----------------------------------------------------------------------------------------------| 


E|--14--12-------------9--12p11p9--11h12p11p9--11h12p11p9--11h12p11p9--11h12p11p9/11--14h15--| 
B|----------14-----10------------------------------------------------------------------------| 
G|-------------------------------------------------------------------------------------------| 
D|-------------------------------------------------------------------------------------------| 
A|-------------------------------------------------------------------------------------------| 
E|-------------------------------------------------------------------------------------------| 


E|--9/11---------9----------------9/10--10--10--10--12/15--15--15--15--15/19-----17--17--14/16--| 
B|--------12--9-----9--12-----12----------------------------------------------------------------| 
G|----------------------------------------------------------------------------------------------| 
D|----------------------------------------------------------------------------------------------| 
A|----------------------------------------------------------------------------------------------| 
E|----------------------------------------------------------------------------------------------| 


E|---------------------------------------------------------------| 
B|--17------19-----17-----17-------------------------------------| 
G|------18--------------------18--16-----------------------------| 
D|------------------------------------18--16\14------------------| 
A|-----------------------------------------------16--14----------| 
E|-------------------------------------------------------17--15--| 


E|------------------7h9h10--10--10-----7/9--10--7h9\7----------------------6--7/9--| 
B|----------8p7--8-------------------------------------7--9/11\9/11-----7----------| 
G|-----4/7-----------------------------------------------------------6-------------| 
D|--5------------------------------------------------------------------------------| 
A|---------------------------------------------------------------------------------| 
E|---------------------------------------------------------------------------------| 


E|--10\9/10--10p7---------12p11h12--12p9----------13------13--14\13/14--14--12--14/16--| 
B|-----------------8----------------------10----------14-------------------------------| 
G|--------------------10----------------------12---------------------------------------| 
D|-------------------------------------------------------------------------------------| 
A|-------------------------------------------------------------------------------------| 
E|-------------------------------------------------------------------------------------| 


E|------16--16------------------------------------------------------------------------------| 
B|--19----------19--19--20b23--23--23--23r20b23--23--23--23r20b23--23--23--23r20b23r20--17--| 
G|------------------------------------------------------------------------------------------| 
D|------------------------------------------------------------------------------------------| 
A|------------------------------------------------------------------------------------------| 
E|------------------------------------------------------------------------------------------| 


E|---------------------------------------------------------14---------12p11p9------| 
B|---------15-----------------------------17\16/17--17---------14--------------12--| 
G|--14/16------14h16p14\12---------14/16-------------------------------------------| 
D|--------------------------14-----------------------------------------------------| 
A|---------------------------------------------------------------------------------| 
E|---------------------------------------------------------------------------------| 


E|----------------------------------------------------------------------------------------| 
B|--12--12/14--14--14----------------------------------------5-----5-----4/5--5-----5--5--| 
G|-------------12--12\11-------------------------------4--6-----6-----6----------6--6--6--| 
D|------------------------14-------------------2--4/6-------------------------------------| 
A|---------------------------------------2--4---------------------------------------------| 
E|-------------------------------0--2/4---------------------------------------------------| 


E|--9------9-----9-----9-------12\11/12--12--12/14\10--10/12\8--8-----10\-------------| 
B|--7v-----7-----7-----7--8/9----------------------------------------------10--10/12--| 
G|------9-----9-----9-----------------------------------------------------------------| 
D|------------------------------------------------------------------------------------| 
A|------------------------------------------------------------------------------------| 
E|------------------------------------------------------------------------------------| 
		  

auto scroll beats size up size down change color hide chords drawings
tab show chords e-chords YouTube Clip e-chords hide all tabs e-chords go to top tab

share