Sarah McLachlan

Blackbird

Sarah McLachlan

tabs Expert expert

by  FINGER PICKER

save to print version add songbook text version e-mail correct tuner
chordsukulelecavacokeyboardtabbassdrumsharmonicaflute Guitar Pro
close

there isn't a video lesson for this song

chords

Blackbird

	  		Standard tuning: (E-A-D-G-B-e) 

 
Intro: 
e|-------------------------------------------------------------| 
B|---0-------3-------5--------/14----14--14----14----14--14----| 
G|-------0-------0-------0---------0-------0-------0-------0---| 
D|-------------------------------------------------------------| 
A|-----------0-------4--------/12------12------12------12------| 
E|---5---------------------------------------------------------| 
      

Verse: ("Blackbird singing....") 
e|-------------------------------------------------------------| 
B|---0-------3-------5--------/14----14--14----14----14--14----| 
G|-------0-------0-------0---------0-------0-------0-------0---| 
D|-------------------------------------------------------------| 
A|-----------0-------4--------/12------12------12------12------| 
E|---5---------------------------------------------------------| 
        
       ("Take these....") 
e|-----------5---------------7------------------------------------------| 
B|---7---------------9------------------10---10--10----10----10--10-----| 
G|-------0-------0-------0-------0----------0-------0-------0-------0---| 
D|----------------------------------------------------------------------| 
A|---5-------6-------7-------8----------9-------8-------8-------8-------| 
E|----------------------------------------------------------------------| 
        
       (All your life....") 
e|-----------5----------------------------------------| 
B|---9---------------7-----7---7------6-----6---6-----| 
G|-------0-------0-------0-------0--------0-------0---| 
D|----------------------------------------------------| 
A|---7-------6-------5-------5--------5-------5-------| 
E|----------------------------------------------------| 
            
       (You were only waiting....") 
e|-----------------------------------------------------------------------| 
B|---5-----5---5-----4-----4---4------3-----3---3------0-----0----0------| 
G|-------0-------0-------0-------0--------0-------0--------0---------0---| 
D|------------------------------------0-------0--------------------------| 
A|---4-------4-------0-------0-------------------------------------------| 
E|-----------------------------------------------------5--------5--------| 
       


Fill:                     
e|----------------------------------------------------------------------| 
B|--7-------5---------4-----4---4-----3-----3---3------0-----0----0-----| 
G|------0-------0---------0-------0-------0-------0--------0--------0---| 
D|------------------------------------0-------0-------------------------| 
A|--5-------4---------0-------0-----------------------------------------| 
E|-----------------------------------------------------5--------5-------| 
    
   
REPEAT VERSE: (without Fill) 


Chorus: ("Blackbird fly....")   
e|---------------------------------------------------------------------| 
B|---12-----10-------8-------7---------5-----5---5-----7-----7---7-----| 
G|-------0-------0-------0-------0---------0-------0-------0-------0---| 
D|---------------------------------------------------------------------| 
A|---10------9-------7-------5---------3-------3-------5-------5-------| 
E|---------------------------------------------------------------------| 
      
   ("Blackbird fly....")  
e|---------------------------------------------------------------------| 
B|---12-----10-------8-------7---------5-----5---5-----4-----4---4-----| 
G|-------0-------0-------0-------0---------0-------0-------0-------0---| 
D|---------------------------------------------------------------------| 
A|---10------9-------7-------5---------3-------3-------0-------0-------| 
E|---------------------------------------------------------------------| 
      
 ("....light of the....")       
e|----------------------| 
B|---3-----3---3----3---| 
G|-------0-------0------| 
D|---0-------0----------| 
A|----------------------| 
E|----------------------| 
         
    ("night....")   
e|-------------------------------------------------------------| 
B|---0-------3-------5--------/14----14--14----14----14--14----| 
G|-------0-------0-------0---------0-------0-------0-------0---| 
D|-------------------------------------------------------------| 
A|-----------0-------4--------/12------12------12------12------| 
E|---5---------------------------------------------------------| 
        
e|-----------5---------------7------------------------------------------| 
B|---7---------------9------------------10---10--10----10----10--10-----| 
G|-------0-------0-------0-------0----------0-------0-------0-------0---| 
D|----------------------------------------------------------------------| 
A|---5-------6-------7-------8----------9-------8-------8-------8-------| 
E|----------------------------------------------------------------------| 
        
e|-----------5----------------------------------------| 
B|---9---------------7-----7---7------6-----6---6-----| 
G|-------0-------0-------0-------0--------0-------0---| 
D|----------------------------------------------------| 
A|---7-------6-------5-------5--------5-------5-------| 
E|----------------------------------------------------| 
            
e|-----------------------------------------------------------------------| 
B|---5-----5---5-----4-----4---4------3-----3---3------0-----0----0------| 
G|-------0-------0-------0-------0--------0-------0--------0---------0---| 
D|------------------------------------0-------0--------------------------| 
A|---4-------4-------0-------0-------------------------------------------| 
E|-----------------------------------------------------5--------5--------|     

("Blackbird fly....")   
e|---------------------------------------------------------------------| 
B|---12-----10-------8-------7---------5-----5---5-----7-----7---7-----| 
G|-------0-------0-------0-------0---------0-------0-------0-------0---| 
D|---------------------------------------------------------------------| 
A|---10------9-------7-------5---------3-------3-------5-------5-------| 
E|---------------------------------------------------------------------| 
      
   ("Blackbird fly....")  
e|---------------------------------------------------------------------| 
B|---12-----10-------8-------7---------5-----5---5-----4-----4---4-----| 
G|-------0-------0-------0-------0---------0-------0-------0-------0---| 
D|---------------------------------------------------------------------| 
A|---10------9-------7-------5---------3-------3-------0-------0-------| 
E|---------------------------------------------------------------------| 
      
 ("....light of the....")       
e|----------------------| 
B|---3-----3---3----3---| 
G|-------0-------0------| 
D|---0-------0----------| 
A|----------------------| 
E|----------------------| 

       
    ("night....") 
e|-------------------------------------------------------------| 
B|---0-------3-------5--------/14----14--14----14----14--14----| 
G|-------0-------0-------0---------0-------0-------0-------0---| 
D|-------------------------------------------------------------| 
A|-----------0-------4--------/12------12------12------12------| 
E|---5---------------------------------------------------------| 
                                                                          
e|----------------------------------------------------------------------| 
B|---14----14--14----14----14--14------14-----14----14----14~~~~~-------| 
G|-------0-------0-------0-------0---------0-----0-----0---0~~~~~-------| 
D|----------------------------------------------------------------------| 
A|---12------12------12------12--------12-----12----12----12~~~~~-------| 
E|----------------------------------------------------------------------| 
   
e|------------------------------------------------------------------------| 
B|-14\--0-------3-------5--------7-------5-------4--------3-----3---3-----| 
G|----------0-------0-------0--------0-------0-------0--------0-------0---| 
D|--------------------------------------------------------0-------0-------| 
A|-12\----------0-------4--------5-------4-------0------------------------| 
E|------5-----------------------------------------------------------------| 
         


Verse: ("Blackbird singing....") 
e|-------------------------------------------------------------| 
B|---0-------3-------5--------/14----14--14----14----14--14----| 
G|-------0-------0-------0---------0-------0-------0-------0---| 
D|-------------------------------------------------------------| 
A|-----------0-------4--------/12------12------12------12------| 
E|---5---------------------------------------------------------| 
        
       ("Take these....") 
e|-----------5---------------7------------------------------------------| 
B|---7---------------9------------------10---10--10----10----10--10-----| 
G|-------0-------0-------0-------0----------0-------0-------0-------0---| 
D|----------------------------------------------------------------------| 
A|---5-------6-------7-------8----------9-------8-------8-------8-------| 
E|----------------------------------------------------------------------| 
        
       (All your life....") 
e|-----------5----------------------------------------| 
B|---9---------------7-----7---7------6-----6---6-----| 
G|-------0-------0-------0-------0--------0-------0---| 
D|----------------------------------------------------| 
A|---7-------6-------5-------5--------5-------5-------| 
E|----------------------------------------------------| 
            
       (You were only waiting....") 
e|-----------------------------------------------------------------------| 
B|---5-----5---5-----4-----4---4------3-----3---3------0-----0----0------| 
G|-------0-------0-------0-------0--------0-------0--------0---------0---| 
D|------------------------------------0-------0--------------------------| 
A|---4-------4-------0-------0-------------------------------------------| 
E|-----------------------------------------------------5--------5--------| 


e|-----------------------------------------------------------------------| 
B|---5-----5---5-----4-----4---4------3-----3---3------0-----0----0------| 
G|-------0-------0-------0-------0--------0-------0--------0---------0---| 
D|------------------------------------0-------0--------------------------| 
A|---4-------4-------0-------0-------------------------------------------| 
E|-----------------------------------------------------5--------5--------| 

e|-----------------------------------------------------------------------| 
B|---5-----5---5-----4-----4---4------3-----3---3------0-----0----0------| 
G|-------0-------0-------0-------0--------0-------0--------0---------0---| 
D|------------------------------------0-------0--------------------------| 
A|---4-------4-------0-------0-------------------------------------------| 
E|-----------------------------------------------------5--------5--------| 

e|-----------------------------------------------------------------------| 
B|---5-----5---5-----4-----4---4------3-----3---3------0-----0----0------| 
G|-------0-------0-------0-------0--------0-------0--------0---------0---| 
D|------------------------------------0-------0--------------------------| 
A|---4-------4-------0-------0-------------------------------------------| 
E|-----------------------------------------------------5--------5--------| 
		  

Full key step upFull key step up
Half key step upHalf key step up
Half key step downHalf key step down
Full key step downFull key step down
auto scroll beats size up size down change color hide chords drawings
tab show chords e-chords YouTube Clip e-chords hide all tabs e-chords go to top tab

share