Robert Johnson

Little Queen Of Spades

Robert Johnson

tabs

by  PAULANTUNES

save to print version add songbook text version e-mail correct tuner
chordsukulelecavacokeyboardtabbassdrumsharmonicaflute Guitar Pro
close

there isn't a video lesson for this song

chords

Little Queen Of Spades

	  		


E||-------------------|-----9--9--9--8--8--8--0--7--7--7--7-----| 
B||-------------------|-----8--8--8--7--7--7--0--6--6--6--6-----| 
G||----------------7--|--9-----------------------------------2--| 
D||-------------------|-----------------------------------------| 
A||-------------------|-----------------------------------------| 
E||-------------------|-----------------------------------------| 


E||-----5--5--5--5--5--5--5--5--|--2-3-2-0--0-----0------------| 
B||--------5--------------------|--------------3----------3----| 
G||--x--------------------------|------------------------------| 
D||--x-----------5--4--4--3-----|--2--------0--------0----0----| 
A||-----------------------------|-----------2--------2----2----| 
E||-----------------------------|-----------0--------0----0----| 


E||--9---------------------|--8-------------------| 
B||--8-------------------8-|--7-------------------| 
G||--9-----------------6---|--8-------------------| 
D||-------0----0----x------|-------0----0----0----| 
A||-------0----0----x------|-------0----0----0----| 
E||------------------------|----------------------| 


E||--9--9--9--9--9--9--8--8--8--7--7--|--5--5--5--7--7--7--8--8--8-------| 
B||--8--8--8--8--8--8--7--7--7--6--6--|--5--------6--6--6--7--7--7-------| 
G||--9--9--9--9--9--9--8--8--8--7-----|--6--------7--7--7--8--8--8-------| 
D||-----------------------------------|----------------------------------| 
A||-----------------------------------|-----------------------------0----| 
E||-----------------------------------|-----------------------------0----| 


E||---------------------------|----------------------|-----0--0-------5--0-----| 
B||----------1--1-------------|----------------------|-----5--5-------------3--| 
G||---------------------------|--2-------------------|-------------------------| 
D||--0----0-------------------|--0----0----0----0----|--5-----5----5-----4-----| 
A||--0----0-----0----0-----0--|-------0----0----0----|--0-----0----0-----0--0--| 
E||--2----2-----2----2--0-----|-------2----2----2----|-------------------------| 


E||-----5-----------3--2----|----------------------|-------------------------| 
B||--2-----------------x----|----------------------|----------1--------------| 
G||-------------------------|----------------------|----------------2--2--2--| 
D||--------2----------------|--0----0----x----0----|-------------------------| 
A||--0-----4--4--0-----0----|--2----2----2----2----|--0----0-----0-----0-----| 
E||--------------------0----|--0----0----0----0----|--2----2-----2-----2-----| 


E||-----5--5--5--5--5--5--5--5--5--5--|--5--0--0-----0--0--0-------|| 
B||-----------------------------------|-----------3----------------|| 
G||-----------------------------------|----------------------------|| 
D||--------5--------4--------3--------|--2-----0--------0-----0----|| 
A||--0--------------------------------|--------2--------2-----2----|| 
E||-----------------------------------|--------0--------0-----0----|| 
		  

See also:

tabs Albert King - Born Under A Bad Sign tabs Robert Johnson - Walkin' Blues tabs Blues Songs - Blues Shuffle tabs Blues Brothers - Soul Man tabs Blind Blake - Bad Feeling Blues tabs Stevie Ray Vaughn and Double Trouble - Riviera Paradise
e-chords

Other versions:

tabs Robert Johnson - Little Queen Of Spades
auto scroll beats size up size down change color hide chords drawings
tab show chords e-chords YouTube Clip e-chords hide all tabs e-chords go to top tab

share