Red Hot Chili Peppers

home > Red Hot Chili Pepp...

Under the Bridge (completo) Tab

Red Hot Chili Peppers

Difficulty: ExpertExpert

by CDF+da+guitarra

tuner correct add songbook print version text version save to e-mail
chordsukulelecavacokeyboardtabbassdrumsharmonicsflute Guitar Pro
chords

Under the Bridge (completo)

	  Artista: Red Hot Chili Peppers             (Kieds / Frusciance / Smith / Flea) 
Música : Under the Bridge (completa)           
Tom    : E 
 
Introdução: 
 
   D                    F#                  D                        F# 
e|----------------------------------------------------------------------------------------| 
b|-3-------3------------2-------------------------------3/5/3-----------------------------| 
G|-----2-----2------------------3-------------------2---------2---------------3-----------| 
D|---4---4------------------4-----4-4-2-0-------4-----4---------4/6-6-----4-----4-4-2-0---| 
A|-5------------4-2-0-----4---4-----------2-4/5---5-------------5/7-7---4---4-----------2-| 
E|--------------------4-2---------------------------------------------2-------------------| 
 
   D                    F#                  D                        F# 
e|----------------------------------------------------------------------------------------| 
b|-3-------3------------2-------------------------------3/5/3-----------------------------| 
G|-----2-----2------------------3-------------------2---------2---------------3-----------| 
D|---4---4------------------4-----4-4-2-0-------4-----4---------4/6-6-----4-----4-4-2-----| 
A|-5------------4-2-0-----4---4-----------2-4/5---5-------------5/7-7---4---4---------4/--| 
E|--------------------4-2---------------------------------------------2-------------------| 
 
 
Canto 1: Deixe os acordes soarem 
 
e|-0-----------2------------/4-4---------4---5---| 
b|-0-----------4------------/5-5---------4---5---| 
G|-1-----------4------------/6-6---------4---6---| 
D|-2-----------4------------/6-6---------6---7---| 
A|-2-----------2-------------------------6---7---| 
E|-0-----------2-------------------------4---5---| 
   E           B             C#m        G#m  A 
    Sometimes I feel like I don't have a parther 
 
 
e|-0----------2----------4--------5---| 
b|-0----------4----------5--------5---| 
G|-1----------4----------6--------6---| 
D|-2----------4----------6--------7---| 
A|-2----------2-------------------7---| 
E|-0----------------------------------| 
   E          B          C#m      A 
    Sometimes I fell like my only friend 
 
 
e|---------0--------2-------4-----4--5------0----2------| 
b|---------0--------4-------5-----4--5------0----4------| 
G|---------1--------4-------6-----4--6------1----4------| 
D|---------2--------4-------6-----6--7------2----4------| 
A|---------2--------2-------4-----6--7------2----2------| 
E|---------0----------------------4--5------0-----------| 
           E        B       C#m  G#m A      E    B 
    Is the city I live in "city of Angels" loney as I am 
 
 
e|----4----------5--| 
b|----5----------5--| 
G|----6----------6--| 
D|----6----------7--| 
A|----4----------7--| 
E|------------------| 
     C#m         A 
    Together me cry 
 
 
 
Ponte: Deixe soar 
 
   E7+ 
e|-----| 
b|--9--| 
G|--8--| 
D|--9--| 
A|--7--| 
E|-----| 
 
 
 
Canto 2: 
 
e|-7-7----------------------------9-------4--5-5---| 
b|-9-9----------7-----------------9-------4--5-5---| 
G|-9-9----------8-8-8/9/8---------9-------4--6-6---| 
D|-9------------9---------9-------11------6--7-----| 
A|-7------------9------------9/11-11------6--7-----| 
E|-7------------7------------7/9----------4--5-----| 
   E            B                 C#m    G#m A 
I drive on her streets 'cause she's my companion 
 
 
e|-7-7----------------------------9-------5-5------| 
b|-9-9----------7-----------------9-------5---5----| 
G|-9-9----------8-8-8/9/8---------9-------6-----6--| 
D|-9------------9---------9-------11------7--------| 
A|-7------------9------------9/11-11------7--------| 
E|-7------------7------------7/9----------5--------| 
   E            B                C#m      A 
I walk thought her hill 'cause she knows who I am 
 
 
e|-7-7----------------------------9-------4--5-5/7/5----| 
b|-9-9----------7-----------------9-------4--5-------5--| 
G|-9-9----------8-8-8/9/8---------9-------4--6-------6--| 
D|-9------------9---------9-------11------6--7----------| 
A|-7------------9------------9/11-11------6--7----------| 
E|-7------------7------------7/9----------4--5----------| 
   E            B                 C#m    G#m A 
She sees my good deeds and she kisses me windy 
 
 
e|-7-7--------------------9--5-5------| 
b|-9-9--7-----------------9--5---5----| 
G|-9-9--8-8-8/9/8---------9--6--------| 
D|-9----9---------9-------11-7--------| 
A|-7----9------------9/11-11-7--------| 
E|-7----7------------7/9-----5--------| 
   E    B                C#m A 
 I never worry now that is a lie 
 
 
 
Ponte: Deixe soar 
 
    E7+ 
e|-----| 
b|--9--| 
G|--8--| 
D|--9--| 
A|--7--| 
E|-----| 
 
 
 
Refrão: 2x                  
                        4x 
e|------9-------7-----|-11-|-9---------09-09-------| 
b|------10--x---9-----|-12-|-10--------10-10-x--x--| 
G|------11--x---9-----|-11-|-11--------09-09-x--x--| 
D|------11--x---9-----|----|-11--------------x--x--| 
A|------9---x---7-----|----|-9---------------x--x--| 
E|--------------------|----|-----------------------| 
        F#m     E       B    F#m 
I don't ever want to feel like I did that day 
  
                        4x 
e|------9-------7-----|-11-|-x-9----------09-09------| 
b|------10--x---9-----|-12-|-x-10---------10-10--x-x-| 
G|------11--x---9-----|-11-|-x-11---------09-09--x-x-| 
D|------11--x---9-----|----|-x-11----------------x-x-| 
A|------9---x---7-----|----|-x-9-----------------x-x-| 
E|--------------------|----|-------------------------| 
        F#m     E       B     F#m 
Take me to the place I love    take me all the way 
 
 
 
Ponte 2: 
 
e|-7-7----------------------------9-------4--5-5---| 
b|-9-9----------7-----------------9-------4--5-5---| 
G|-9-9----------8-8-8/9/8---------9-------4--6-6---| 
D|-9------------9---------9-------11------6--7-----| 
A|-7------------9------------9/11-11------6--7-----| 
E|-7------------7------------7/9----------4--5-----| 
   E            B                C#m     G#m A 
 
e|-7-7----------------------------9-------5-5------| 
b|-9-9----------7-----------------9-------5---5----| 
G|-9-9----------8-8-8/9/8---------9-------6-----6--| 
D|-9------------9---------9-------11------7--------| 
A|-7------------9------------9/11-11------7--------| 
E|-7------------7------------7/9----------5--------| 
   E            B                C#m      A 
 
 
 
Canto 3: 
 
e|-7-7----------------------------9-------4--5-5---| 
b|-9-9----------7-----------------9-------4--5-5---| 
G|-9-9----------8-8-8/9/8---------9-------4--6-6---| 
D|-9------------9---------9-------11------6--7-----| 
A|-7------------9------------9/11-11------6--7-----| 
E|-7------------7------------7/9----------4--5-----| 
   E            B                C#m     G#m A 
It's hard to belive there's nobody out there 
 
 
e|-7-7--------------9-7--------9----5-5-----| 
b|-9-9----------7-7-7-7--------9----5---5---| 
G|-9-9----------8-8-8-8--------9----6-----6-| 
D|-9------------9-9-7----------11---7-------| 
A|-7------------9---------9/11-11---6-------| 
E|-7------------7---------7/9---------------| 
   E            B             C#m   A 
It's hard to belive that I'm all alone 
 
 
e|-7-7------------------------9-----4--5-5/7/5----| 
b|-9-9------7-----------------9-----4--5-------5--| 
G|-9-9------8-8-8/9/8---------9-----4--6-------6--| 
D|-9--------9---------9-------11----6--7----------| 
A|-7--------9------------9/11-11----6--7----------| 
E|-7--------7------------7/9--------4--5----------| 
   E        B                C#m   G#m A 
At least I have her love, city she love me 
 
 
e|-7-7--------------------9--5-5------| 
b|-9-9--7-----------------9--5---5----| 
G|-9-9--8-8-8/9/8---------9--6--------| 
D|-9----9---------9-------11-7--------| 
A|-7----9------------9/11-11-7--------| 
E|-7----7------------7/9-----5--------| 
   E    B                C#m A 
Lonely as I am, Together we cry 
 
 
 
Refrão: 2x                  
                        4x 
e|------9-------7-----|-11-|-9---------09-09-------| 
b|------10--x---9-----|-12-|-10--------10-10-x--x--| 
G|------11--x---9-----|-11-|-11--------09-09-x--x--| 
D|------11--x---9-----|----|-11--------------x--x--| 
A|------9---x---7-----|----|-9---------------x--x--| 
E|--------------------|----|-----------------------| 
        F#m     E       B    F#m 
I don't ever want to feel like I did that day 
  
                        4x 
e|------9-------7-----|-11-|-x-9----------09-09------| 
b|------10--x---9-----|-12-|-x-10---------10-10--x-x-| 
G|------11--x---9-----|-11-|-x-11---------09-09--x-x-| 
D|------11--x---9-----|----|-x-11----------------x-x-| 
A|------9---x---7-----|----|-x-9-----------------x-x-| 
E|--------------------|----|-------------------------| 
        F#m     E       B       F#m 
Take me to the place I love    take me all the way 
 
 
 
Ponte 3: 3x 
 
     A       C     G6/A     F7+/A 
e|---------------------------------| 
b|-5-5-5-x-5-5-5-x-3-3-3-x-1-1-1-1-| 
G|-6-6-6-x-5-5-5-x-4-4-4-x-2-2-2-2-| 
D|-7-7-7-x-7-7-7-x-5-5-5-x-3-3-3-3-| 
A|---------------------------------| 
E|---------------------------------| 
 
 
Essa parte é tocada para entrar o último Refrão. 
 
   10x  5x  5x 
e|-12---10--7--| 
b|-10---9---8--| 
G|-10---9---7--| 
D|-10---9------| 
A|-------------| 
E|-------------| 
   F    E   G 
 
 
e|-----------------------------------------------------| 
b|-5--5-..------------5--5-..---3-3-..----1--1-1-..----| 
G|-6--6-..------------5--5-..---4-4-..----2--2-2-..----| 
D|-7--7-..------------7--7-..---5-5-..----3--3-3-..----| 
A|-----------------------------------------------------| 
E|-----------------------------------------------------| 
   A                    C         G6/A       F7+/A 
   Under the bridge downtown is where I drew some blood 
 
 
e|-----------------------------------------------------| 
b|-5--5-..------------5--5-..--3-3-..----1--1-1-..-----| 
G|-6--6-..------------5--5-..--4-4-..----2--2-2-..-----| 
D|-7--7-..------------7--7-..--5-5-..----3--3-3-..-----| 
A|-----------------------------------------------------| 
E|-----------------------------------------------------| 
   A                     C    G6/A       F7+/A 
   Under the bridge downtown could not get enough 
 
e|-----------------------------------------------------| 
b|-5--5-..------------5--5-..---3-3-..----1--1-1-..----| 
G|-6--6-..------------5--5-..---4-4-..----2--2-2-..----| 
D|-7--7-..------------7--7-..---5-5-..----3--3-3-..----| 
A|-----------------------------------------------------| 
E|-----------------------------------------------------| 
   A                    C     G6/A        F7+/A 
   Under the bridge downtown forget about my love 
 
e|-----------------------------------------------------| 
b|-5--5-..------------5--5-..---3-3-..----1--1-1-..----| 
G|-6--6-..------------5--5-..---4-4-..----2--2-2-..----| 
D|-7--7-..------------7--7-..---5-5-..----3--3-3-..----| 
A|-----------------------------------------------------| 
E|-----------------------------------------------------| 
   A                     C    G6/A      F7+/A 
   Under the bridge downtown I gave my life way 
 
Final: 4x 
  
     A       C     G6/A     F7+/A 
e|--------------------------------------| 
b|-5-5-5-..-5-5-5-..-3-3-3-..-1-1-1-1-..| 
G|-6-6-6-..-5-5-5-..-4-4-4-..-2-2-2-2-..| 
D|-7-7-7-..-7-7-7-..-5-5-5-..-3-3-3-3-..| 
A|--------------------------------------| 
E|--------------------------------------| 
   
   A         C         G6/A   F7+/A 
e|------0-0-0-0-0-3-0--------------------| 
b|-/10--1-1-1-1-1-1-1--3-3-3--1-1-1-3/1--| 
G|---------------------4-4-4--2-2-2-2----| 
D|---------------------5-5-5-------------| 
A|---------------------------------------| 
E|---------------------------------------| 
 
   A         C           G6/A  F7+/A 
e|---------0-0-0-0-0-3-0-----------------| 
b|-5-5-5-5-1-1-1-1-1-1-1-3-3-3-1-1-1-3/1-| 
G|-6-6-6-6---------------4-4-4-2-2-2-2---| 
D|-7-7-7-7---------------5-5-5-----------| 
A|---------------------------------------| 
E|---------------------------------------| 
 
   A         C           G6/A  F7+/A 
e|---------0-0-0-0-0-3-0-----------------| 
b|-5-5-5-5-1-1-1-1-1-1-1-3-3-3-1-1-1-3/1-| 
G|-6-6-6-6---------------4-4-4-2-2-2-2---| 
D|-7-7-7-7---------------5-5-5-----------| 
A|---------------------------------------| 
E|---------------------------------------| 
 
   A         C                G6/A  F7+/A 
e|---------0-0-0-0-0-0-----0-------------| 
b|-5-5-5-5-1-1-1-1-1-1/3/1-1---3-3-3--1--| 
G|-6-6-6-6---------------------4-4-4--2--| 
D|-7-7-7-7---------------------5-5-5--3--| 
A|---------------------------------------| 
E|---------------------------------------| 
 
     A 
e|-------| 
b|--2~~--| 
G|--2~~--| 
D|--2~~--| 
A|--0~~--| 
E|-------| 
 
Legenda: 
 
x  - raspar a palheta sobre a corda indicada 
.. - Seguir tocando o acorde 
 
Fim. 
 
 
 
 
 
 
 
 
 
 
 
 
 
 
 
 
 
 
 
 
 
 
 
 
 
 
 
 
 
 
 
 

	  

there isn't a video lesson for this song

request
Full key step upFull key step up
Half key step upHalf key step up
Half key step downHalf key step down
Full key step downFull key step down
Search
auto scroll beats size up size down change color hide chords drawings
tab show chords e-chords YouTube Clip e-chords hide all tabs e-chords go to top tab