Red Hot Chili Peppers

Under The Bridge (ver. 3)

Red Hot Chili Peppers

tabs Expert expert

by  CEAFDC

save to print version add songbook text version e-mail correct tuner
chordsukulelecavacokeyboardtabbassdrumsharmonicaflute Guitar Pro
close

there isn't a video lesson for this song

chords

Under The Bridge (ver. 3)

	  		e--------------------------------------------------- 
B----1-----------------------1---------------------- 
G-----------------0-----------------0--------------- 
D-----------2-----------2--------------------------- 
A----3------------------------------------2--0------ 
E-----------------------------------------------3-2- 

e--------------------------------------------------- 
B----0---------------------------------------------- 
G----------------------1---------------------------- 
D--------------2------------2---2---0--------------- 
A---------2---------2-------------------3----0------ 
E----0---------------------------------------------- 

e--------------------------------------------------- 
B----1-----------------------1-3-1------------------ 
G-------------------0---------------0--------------- 
D----------2-----------------------------2-4---4---- 
A----2-3-------3---------3---------------3-5---5---- 
E--------------------------------------------------- 

e--------------------------------------------------- 
B--------------------------------------------------- 
G-----------------------1--------------------------- 
D-------------2--------------2---2---0-------------- 
A---------2--------2-----------------------3--0----- 
E----0---------------------------------------------- 

e--------------------------------------------------- 
B----1-----------------------1---------------------- 
G-------------------0-------------0----------------- 
D-----------2-----------2--------------------------- 
A----2-3--------3----------------------2---0-------- 
E-----------------------------------------------3-2- 

e--------------------------------------------------- 
B----0---------------------------------------------- 
G---------------------1----------------------------- 
D------------2--2----------2-----2---0-------------- 
A---------2--------x---------------------3---0------ 
E----0---------------------------------------------- 

e--------------------------------------------------- 
B-----1---------------------1-3-1------------------- 
G------------------0----------------0--------------- 
D-----------2---------------------------2-4--4------ 
A-----2-3------3--------3---------------3-5--5------ 
E--------------------------------------------------- 

e--------------------------------------------------- 
B--------------------------------------------------- 
G------------------1-----------1----------1--------- 
D-----------2-----------2-----------2-------2------- 
A--------2-----2----------2------------2-------2-5-- 
E----0----------------------------------------------
		  

auto scroll beats size up size down change color hide chords drawings
tab show chords e-chords YouTube Clip e-chords hide all tabs e-chords go to top tab

share