Red Hot Chili Peppers

Under The Bridge (ver. 2)

Red Hot Chili Peppers

tabs Advanced advanced

by  ARTHURMMD

save to print version add songbook text version e-mail correct tuner
chordsukulelecavacokeyboardtabbassdrumsharmonicaflute Guitar Pro
close

there isn't a video lesson for this song

chords

Under The Bridge (ver. 2)

	  		Intro: 
E|----------------------|---------------------|---------------------| 
B|---0----------3-------|---------------------|---------------------| 
G|---------2------2-----|---------------------|-----------3---------| 
D|------4----4------4---|---------------------|-----4--------4------| 
A|---5------------------|---4--2--0-----------|--4-----4------------| 
E|----------------------|------------4--2-----|---------------------| 
 
E|------------------------------------------------------------|----------------------| 
B|---------------------------3h5h3----------------------------|----------------------| 
G|---------------------2----------2------------------3--------|----------------------| 
D|-4--2--0----------4-----4----------4/6--------4-------4-----|--4--2--0-------------| 
A|----------2--4h5-------------------5/7----4-----4--------4--|-----------2--4h5-----| 
E|---------------------------------------2--------------------|----------------------| 
 
 
E|-------------------------|-----------------|---------------------| 
B|------------3------------|-----------------|---------------------| 
G|------2--------4---------|-----------------|-----------3---------| 
D|---4-----4--------4------|-----------------|-----4--------4------| 
A|-------------------------|---4--2--0-------|--4-----4------------| 
E|-------------------------|------------4--2-|---------------------| 
 
E|-------------------------------------------------------------------------------| 
B|---------------------------3h5h3-----------------------------------------------| 
G|---------------------2----------2--------------------3---------3---------------| 
D|-4--2--0----------4-----4-----------4/6---------4--------4--------4------------| 
A|----------2--4h5--------------------5/7-----4------4--------4-------4/7--------| 
E|-----------------------------------------2-------------------------------------| 
 
 
E           B           C#m           G#m   A 
Sometimes I feel like I don't have a  partner 
E           B         C#m    A 
Sometimes I feel like my only friend 
      E      B          C#m      G#m  A 
Is the city I live in the City of Angels 
E        B  
Lonely as I am 
  C#m      A    E7+ 
Together we cry  
E             B              C#m   G#m       A 
I drive on her streets 'cause she's my companion 
E             B                C#m       A 
I walk through her hills 'cause she knows who I am 
        E       B        C#m         G#m      A 
She sees my good deeds and she kisses me windy 
E      B 
I never worry 
   C#m  A        E7+ 
Now that is a lie 
                  F#m       E 
I don't ever want to feel 
B     F#m 
Like I did that day 
             F#m      E 
Take me to the place I love 
B     F#m 
Take me all way 
           F#m       E 
I don't ever want to feel 
B     F#m 
Like I did that day 
             F#m      E 
Take me to the place I love 
B     F#m      E     B     C#m B A 
Take me all way Oh 
E B C#m A     E           B              C#m     G#m      A 
It's hard to believe there's nobody out there 
E           B           C#m      A 
It's hard to believe that I'm all alone 
        E         B       C#m       G#m     A 
At least I got her love the city she loves me 
E        B 
Lonely as I am 
   Cm    A    E7+ 
Together we cry 
                   F#m      E 
I don't ever want to feel 
B     F#m 
Like I did that day 
              F#m     E 
Take me to the place I love 
B      F#m 
Take me all way 
            F#m      E 
I don't ever want to feel 
B     F#m 
Like I did that day 
             F#m      E 
Take me to the place I love 
B      F#m 
Take me all way 
A    C    G6 F7+ 
Ay   Ay   Ya Ya 
A    C              G6   F7+ 
Oh,    no   no no     yea  yea! 
A     C            G6   F7+ 
Love   me   I say    yea  yea!     F7+      E7   G 
 
A                    C 
Under the bridge downtown 
G6        F7+ 
Is where I drew some blood 
A                    C 
Under the bridge downtown 
G6         F7+ 
I could not get enough 
A                    C 
Under the bridge downtown 
G6      F7+ 
Forgot about my love 
A                    C 
Under the bridge downtown 
G6       F7+ 
I gave my life away 
A    C    G6 F7+ 
Ay   Ay   Ya Ya 
A    C              G6   F7+ 
Oh,    no   no no     yea  yea! 
A     C             G6   F7+ 
Down__town__ I say__  yea yea!__ 
A C         G6 F7+ 
   Will I stay 

		  

Full key step upFull key step up
Half key step upHalf key step up
Half key step downHalf key step down
Full key step downFull key step down
hide glossary

See also:

tabs Incubus - I Miss You tabs Red Hot Chili Peppers - Dosed tabs Paramore - The Only Exception tabs Red Hot Chili Peppers - Under the Bridge (completo) tabs Alesana - Apology tabs Red Hot Chili Peppers - Dani California (ver.2)
e-chords

Other versions:

tabs Red Hot Chili Peppers - Under the Bridge tabs Red Hot Chili Peppers - Under the Bridge (completo) tabs Red Hot Chili Peppers - Under The Bridge (ver. 2) tabs Red Hot Chili Peppers - Under The Bridge (ver. 3) tabs Red Hot Chili Peppers - Under The Bridge Acoustic
auto scroll beats size up size down change color hide chords drawings
tab show chords e-chords YouTube Clip e-chords hide all tabs e-chords go to top tab

share