Red Hot Chili Peppers

home > Red Hot Chili Pepp...

Dosed Tab

Red Hot Chili Peppers

Difficulty: ExpertExpert

by Danucalov

tuner correct add songbook print version text version save to e-mail
chordsukulelecavacokeyboardtabbassdrummharmonicsflute Guitar Pro
chords

Dosed

Year: 2002 - Album: By The Way

Key:  C More
Dosed Key GG
Dosed Key G#G#
Dosed Key AA
Dosed Key A#A#(one step down)
Dosed Key BB(half step down)
Dosed Key CC(original key)
Dosed Key C#C#(half step up)
Dosed Key DD(one step up)
Dosed Key D#D#
Dosed Key EE
Dosed Key FF
Dosed Key F#F#
  		INTRO/VERSOS 
Riff A (guitarra2) 
-|-12-------12-------12-------12-------10-------10-----7-----7-| 
-|-------12-------12-------12-------10-------10------8-----8---| 
-|----12-------12-------12-------11-------11-------9-----9-----| 
-|-------------------------------------------------------------| 
-|-------------------------------------------------------------| 
-|-------------------------------------------------------------| 
                                                                               
Riff B 
        C            C             D                Em 
-|----------------------------------------------------------| 
-|--------5------------5-------------7-----------------8----| 
-|----------------------------------------------------------| 
-|------5------------5-------------7-----------------9------| 
-|----3------------3-------------5-----------------7--------| 
-|----------------------------------------------------------| 
                                                                               
Riff C 
                  Parte A           Parte B 
-|---------------------------|------------------------------| 
-|------------------3--------|--------3-5-------------------| 
-|--------------4-4---4-4----|----4-4-----4-----------------| 
-|---------------------------|------------------------------| 
-|---------------------------|------------------------------| 
-|---------------------------|------------------------------| 
                                                                               
Riff D 
-|--------------------------| 
-|--------------------------| 
-|----------------------0---| 
-|--------------5-4-2-0-2---| 
-|--------------------------| 
-|--------------------------| 
                                                                               
Riff D2 
-|(5)-----| 
-|-7-7--8-| 
-|(7)7--9-| 
-|--------| 
-|--------| 
-|--------| 
                                                                               
Riff E  Parte A      Parte B 
-|-19-17-15-14-15-|---------------| 
-|----------------|20-19-17-15-17-| 
-|----------------|---------------| 
-|----------------|---------------| 
-|----------------|---------------| 
-|----------------|---------------| 
                                      
Rerão 
      G       D       Em        C           G       D       Em      C 
-|-3-3-3-3-5-5-5-5-7-7-7-7-15-14-12----|-3-3-3-3-5-5-5-5-7-7-7-7-7-7-7-10-7-| 
-|-3-3-3-3-7-7-7-7-8-8-8-8----------15-|-3-3-3-3-7-7-7-7-8-8-8-8-8-8-8-8--8-| 
-|-------------------------------------|------------------------------------| 
-|-------------------------------------|------------------------------------| 
-|-------------------------------------|------------------------------------| 
-|-------------------------------------|------------------------------------| 
 
Refrão A                     B 
       Em          C                  Em                    C 
-|-7-7-7-7-7-7-10-10-10-10-|-7-7-7-7-7-7-7-7-7-7-7-10-10-10-10-10-10-10-10--| 
-|-8-8-8-8-8-8-------------|-8-8-8-8-8-8-8-8-8-8-8-8--8--8--8--8--8--8--8---| 
-|-7-7-7-7-7-7-------------|-7-7-7-7-7-7-7-7-7-7-7--------------------------| 
-|-------------------------|------------------------------------------------| 
-|-------------------------|------------------------------------------------| 
-|-------------------------|------------------------------------------------| 
                                                                               
 
Solo 
 Parte A                                 X2 
-|-12-10-12-10-12-10-12-10-12-10----------|---------------------------------| 
-|-------------------------------12-12-12-|12/13-13-13-13-12----------------| 
-|----------------------------------------|------------------12-12-11-12-12-| 
-|----------------------------------------|---------------------------------| 
-|----------------------------------------|---------------------------------| 
-|----------------------------------------|---------------------------------| 
                                                                               
                                                                          X2 
-|-10-12-10-12-10-12-10-------|-12-10-12-10-12-10-12-10-12-10---------------| 
-|-12-13-12-13-12-13-12-------|-------------------------------12-12-12------| 
-|----------------------12-12-|---------------------------------------------| 
-|----------------------------|---------------------------------------------| 
-|----------------------------|---------------------------------------------| 
-|----------------------------|---------------------------------------------| 
                                                                               
   Parte B 
-|--------------------------------------------------------------------------| 
-|-15-15-15-15-15-15-/-13-13-13-13-13-12-12-12-12-12-12-12b--12--15v--------| 
-|--------------------------------------------------------------------------| 
-|--------------------------------------------------------------------------| 
-|--------------------------------------------------------------------------| 
-|--------------------------------------------------------------------------| 
 
Riff F 
-|-------------| 
-|-------------| 
-|-------------| 
-|-5-4-2-0-2-2-| 
-|-------------| 
-|-------------| 
                                                                                               
Riff F2 
-|-3-3-3-3-3-3-3-3-3-3-3-3-3-3-3-3-5-5-5-5-5-5-5-5-5-5-5-5-7--| 
-|-5-5-5-5-5-5-5-5-3-3-3-3-3-3-3-3-5-5-5-5-5-5-5-5-5-5-5-5-8--| 
-|--------------------------------------------------------(7)-| 
-|------------------------------------------------------------| 
-|------------------------------------------------------------| 
-|------------------------------------------------------------| 
                                                                                     
Estrutura 
- INTRO 
Riff A 
Riff B 
Riff C (Parte A X3 - Parte B X1) 
Riff D 
- VERSO 
Riff A 
Riff B 
Riff D 
Riff D2 
- PRE-Refrão 
Riff A 
Riff B 
Riff D 
Riff E (Parte A - Parte B) 
- INTRO (Riff C: Parte A X2) 
- VERS0 
- PRE-Refrão 
- Refrão (A) 
- VERSO 
- PRE-Refrão (Riff E: Parte A X2 - Parte B X2) 
- Refrão (B) 
- Ponte 
Riff A 
Riff B 
Riff C (Part A X1 - Part B X1) 
Riff D 
- VERS0 
- PRE-Refrão (Riff E: Parte A X2 - Parte B X2) 
- Refrão (B) 
- SOLO 
Solo Riff parte A 
Riff A 
Riff B 
Riff F 
Solo Riff Parte B 
Riff F2 
	  

Search Paypal
auto scroll beats size up size down change color hide chords drawings
tab show chords e-chords YouTube Clip e-chords hide all tabs e-chords go to top tab