Red Hot Chili Peppers

home > Red Hot Chili Pepp...

Dani california Tab

Red Hot Chili Peppers

Difficulty: BeginnerBeginner

by europeu

tuner correct add songbook print version text version save to e-mail
chordsukulelecavacokeyboardtabbassdrumsharmonicsflute Guitar Pro
chords

Dani california

Year: 2006 - Album: Stadium Arcadium

(Anthony Kiedis/ Chad Smith/ Flea/ John Frusciante)

  		Chorus ::  
 
   Cali  -  fornia   rest in  peace  
     Am        F        C       D        
 
E|--------|--------|--------|--------| 
B|--------|--------|--------|--------| 
G|--------|--------|--------|--0h222-| 
D|--2222--|--------|--2222--|--00000-| 
A|--0000--|--3333--|--3333--|--------| 
E|--------|--1111--|--------|--------| 
 
  Simul   -  tane  - ous re - lease 
    Am         F        C       D        
 
E|--------|--------|--------|--------| 
B|--------|--------|--------|--------| 
G|--------|--------|--------|--0h222-| 
D|--2222--|--------|--2222--|--00000-| 
A|--0000--|--3333--|--3333--|--------| 
E|--------|--1111--|--------|--------| 
 
   Cali   - fornia  show your teeth 
    Am         F        C       D        
 
E|--------|--------|--------|--------| 
B|--------|--------|--------|--------| 
G|--------|--------|--------|--0h222-| 
D|--2222--|--------|--2222--|--00000-| 
A|--0000--|--3333--|--3333--|--------| 
E|--------|--1111--|--------|--------| 
 
 She's my priestess I'm your  priest   Yeah     Yeah 
    Am         F        C       D        
 
E|--------|--------|--------|--------|--------|--------| 
B|--------|--------|--------|--------|--------|--------| 
G|--------|--------|--------|--0h222-|--2222--|--2222--| 
D|--2222--|--------|--2222--|--00000-|--0000--|--0000--| 
A|--0000--|--3333--|--3333--|--------|--------|--------| 
E|--------|--1111--|--------|--------|--------|--------| 
 
 
Solo :: 
 
E:---------------------------------------------| 
B:---------------------------------------------| 
G:-----5-7~------------------------------------| 
D:--/7-------5--5--5---5-----------------------| 
A:-------------8--8-------8-5-5\-----------/5--| 
E:---------------  --------------3--1-3-1------| 
 
| /  slide up 
| \  slide down 
| h  hammer-on 
| p  pull-off 
| ~  vibrato 
| +  harmonic 
| x  Mute note 
 
Lyrics :: 
 
California, rest in peace 
Simultaneous release 
California, show your teeth 
She's my priestess, I'm your priest 
  
D  
  
 

	  

Full key step upFull key step up
Half key step upHalf key step up
Half key step downHalf key step down
Full key step downFull key step down
Search Paypal
auto scroll beats size up size down change color hide chords drawings
tab show chords e-chords YouTube Clip e-chords hide all tabs e-chords go to top tab