Red Hot Chili Peppers

home > Red Hot Chili Pepp...

Dani California (ver.2) Tab

Red Hot Chili Peppers

Difficulty: EasyEasy

by Windows

tuner correct add songbook print version text version save to e-mail
chordsukulelecavacokeyboardtabbassdrumsharmonicsflute Guitar Pro
chords

Dani California (ver.2)

  		 
Intro: Am G Dm Am  
 
 
Versos: Am G Dm Am  
 
 
Obs: Quando for passar pro Refrão, não faça o ultimo Am, segure o Dm por mais tempo  
 
 
Refrão: F C Dm  
 
Obs: No Refrão, o john faz um G rapidinho, soh pra passar do Dm pro F de novo  
 
Quando for passar pros verses segure um poco mais o o Dm tb, fazendo aquela batidinha q o john faz  
 
Solo dps do Refrão:  
 
--8--7--10--12--8--7--10-----------------  
-------------------------10--------------  
-----------------------------------------  
-----------------------------------------  
-----------------------------------------  
-----------------------------------------  
 
 
 
Versos: Am G Dm Am  
 
Novamente quando for passar pro Refrão, siga a instrução do primeiro verso  
 
 
Refrão F C Dm  
 
Obs: Mesma observação do primeiro Refrão  
 
 
Ponte:  
 
Bm G D5  
 
Obs: O john faz umas coisinha quando tah voltando do D5 pro Bm. Pra isso eh soh improvisar  
 
 
Repete os verses, do mesmo jeito dos anteriores, porém no final, dps do ultimo Dm, faça um E  
 
 
Repete o Refrão 2 vezes  
 
 
Solo:  
 
 
-----------------------------------  
-----6-----------------------------  
---5---7---------------------------  
-7-------5/7-5/7-5/7-5/7-----5-7---  
-------------------------5-5-----5-  
-----------------------------------  
 
------------------------10-8---10--  
-----6----------------------10-----  
---5---7-------------7-------------  
-7-------5/7-5/7-5/7---------------  
-----------------------------------  
-----------------------------------  
 
-----------------------------------  
-----6-----------------------------  
---5---7---------------------------  
-7-------5/7-5/7-5/7-5/7-----5-7---  
-------------------------5-5-----5-  
-----------------------------------  
 
------------------------10-8--10--10-8--10-10-8--10-8--10-8--10-8--10-8--10-8----  
-----6----------------------10--------10-------10----10----10----10----10----10--  
---5---7-------------7-----------------------------------------------------------  
-7-------5/7-5/7-5/7-------------------------------------------------------------  
---------------------------------------------------------------------------------  
---------------------------------------------------------------------------------  
 
-----------------------------------  
-----6-----------------------------  
---5---7---------------------------  
-7-------5/7-5/7-5/7-5/7-----5-7---  
-------------------------5-5-----5-  
-----------------------------------  
 
------------------------10-8---10/12-10--  
-----6----------------------10-----------  
---5---7-------------7-------------------  
-7-------5/7-5/7-5/7---------------------  
-----------------------------------------  
-----------------------------------------  
 
-----------------------------------  
-----6-----------------------------  
---5---7---------------------------  
-7-------5/7-5/7-5/7-5/7-----5-7---  
-------------------------5-5-----5-  
-----------------------------------  
 
 
Muito Rapido:  
 
--10-8--10--10-8--10-10-8--10-8--10-8--10-8--10-8--10-8----  
------10--------10-------10----10----10----10----10----10--  
-----------------------------------------------------------  
-----------------------------------------------------------  
-----------------------------------------------------------  
-----------------------------------------------------------  
 
Mais rapido ainda  
 
 
-15-12--15-12--15-12--15-12--15-12--15-12--15-12--15-12-----  
------15-----15-----15-----15-----15-----15-----15-----15---  
------------------------------------------------------------  
------------------------------------------------------------  
------------------------------------------------------------  
------------------------------------------------------------  
 
Terminar com:  
 
-------------  
-------------  
-------------  
----12-------  
-------------  
------------- 
 
Autor: Blood Sugar 
Site: www.takeforum.com/forum/letsmakeforum.html 

	  

Full key step upFull key step up
Half key step upHalf key step up
Half key step downHalf key step down
Full key step downFull key step down
Search Paypal
auto scroll beats size up size down change color hide chords drawings
tab show chords e-chords YouTube Clip e-chords hide all tabs e-chords go to top tab