Red Hot Chili Peppers

home > Red Hot Chili Pepp...

Charlie Tab

Red Hot Chili Peppers

Difficulty: ExpertExpert

by europeu

tuner correct add songbook print version text version save to e-mail
chordsukulelecavacokeyboardtabbassdrumsharmonicsflute Guitar Pro
chords

Charlie

Year: 2006 - Album: Stadium Arcadium

  		Intro: 
 
e-------------------------------| 
b-------------------------------| 
g-------------3--------------3--| 
d------3----2-------3-----2-----| 
a----2----1--------2----1-------| 
E--1--------------1-------------| 
 
 
Verses 
Riff 1: 
All aboard...stitch in time.... 
e--3-3---3-3----------------------| 
b--3-3---3-3----------------------| 
g--3-3---3-3----------------------| 
d--x-x---x-x-----------------------| 
a----------------------------------| 
E ---------------------------------| 
 
Riff 2: 
 
When I pick up on that smell.... 
e--15-15---15-15--| 
b--15-15---15-15--| 
g--15-15---15-15--| 
d---x-x-----x--x---| 
a------------------| 
E------------------| 
 
pre-Chorus: 
Fill1: 
e---------------------------------------------------------------------------------------| 
b---------------------------------------------------------------------------------------| 
g--12-12-12-12-12 (pick repeatedly occasionally bending up full) 12fb-------10h12p10h12--| 
d---------------------------------------------------------------------------------------| 
a---------------------------------------------------------------------------------------| 
E---------------------------------------------------------------------------------------| 
 
Chorus: 
 
So much more than charlie's wakin me 
 
e--6-6-x-x-x---6-6-x-x-x---8---8-x-x-x--6-6-x-x-x--| 
b--8-8-x-x-x---6-6-x-x-x---10-10-x-x-x--8-8-x-x-x--| 
g--8-8-x-x-x---7-7-x-x-x---10-10-x-x-x--8-8-x-x-x--|		(x4) 
d--x-x-x-x-x---x-x-x-x-x----x--x--x-x-x--x-x-x-x-x--| 
a--x-x-x-x-x---x-x-x-x-x----x--x--x-x-x--x-x-x-x-x--| 
E---------------------------------------------------| 
 
Oh oh now...... 
e--10-10-10-10-10-10-10-10-| 
b--10-10-10-10-10-10-10-10-| 
g--10-10-10-10-10-10-10-10-| 
d----------------------------| 
a----------------------------| 
E----------------------------| 
E----------------------------| 
 
 
pre Chorus: 
Fill 2: 
 
e-----------------------------------------13fb----------------------------------| 
b---------------11-13-13fb--13-13-13p11------13fb-13-13-13p11----11fb-11fb/-| 
g---10fb-10--12----------------------------------------------------------------| 
d-------------------------------------------------------------------------------| 
a-------------------------------------------------------------------------------| 
E-------------------------------------------------------------------------------| 
 
Background Fill: 
e-15-(continuously)---15-13-15--18--15---| 
b-----------------------------------------| 
g-----------------------------------------| 
d-----------------------------------------| 
a-----------------------------------------| 
E-----------------------------------------| 
 
Interlude 
e--------------------------------------------------------------------------------| 
b--------------------------------------------------------------------------------| 
g--------------------------------------------------------------------------------| 
d--12--10----10------------12--10----10----------------------------------------|		(x5) 
a----------13---13-12-10----------13----13-12-10h12h13------------------------| 
E--------------------------------------------------------------------------------| 
 
 
pre Chorus Fill 3: 
 
e------------------------------------------------13--13fb----------------------| 
b----------------------------------13fbp11---13fb--------13fbp11-13p11-------| 
g--10h12p10h12p10h12p10h12p10----------12-----------------------------12/--| 
d------------------------------------------------------------------------------| 
a------------------------------------------------------------------------------| 
E------------------------------------------------------------------------------| 
 
solo: 
e------------------------------------------------------------------------------------| 
b------------------------------------------11full1/2(up 3 frets)-11------------11full1/2--11 
g--10fbrp7-10fbrp7-10fbrp7-10fbrp7-10fbrp7-------------------------12p10-12--------| 
d------------------------------------------------------------------------------------| 
a------------------------------------------------------------------------------------| 
E------------------------------------------------------------------------------------| 
 
e--------------------------- 
b---------------11full1/2-11 
g--12p10-12-12-------------- 
d---------------------------- 
a---------------------------- 
e---------------------------- 

	  

Search Paypal
auto scroll beats size up size down change color hide chords drawings
tab show chords e-chords YouTube Clip e-chords hide all tabs e-chords go to top tab