Red Hot Chili Peppers

home > Red Hot Chili Pepp...

Charlie Bass Tab

Red Hot Chili Peppers

Difficulty: BeginnerBeginner

by europeu

tuner correct add songbook print version text version save to e-mail
chordsukulelecavacokeyboardtabbassdrumsharmonicsflute Guitar Pro
chords

Charlie

Year: 2006 - Album: Stadium Arcadium

  		INTRO: 
G-----------------2---------------2-| 
D---------1----1----------1----1----| 
A------1----3----------1----3-------| 
E---3---------------3---------------| 
 
VERSE: 
G-----------------------| 
D-----------------------| 
A-----------------3--1--| 
E-3--(1)1--(3)3---------| 
 
G------------------| 
D------------------| 
A----------1-3-1-0-| 
E-1-3--3-----------| 
 
G-----------------------| 
D-----------------------| 
A-----------------3--1--| 
E-3--(1)1--(3)3---------| 
 
G-----------------------| 
D-----------------------| 
A----------1-3-1-0--3-5-| 
E-1-3--3----------------| 
 
 
Chorus: (crank those highs) 
G-----5---------------7-----------| 
D-------------5---------------7---| 
A-3-3--3----------5-5--5----------| 
E---------3-3--3----------5-5--5--| 
 
 
OUTRO: 
G-----5---------------7-----------| 
D-------------5---------------7---| 
A-3-3-------------5-5-------------| 
E---------3-3--3----------5-5-----| 
 
G-----5---------------7-----------| 
D-------------5---------------7---| 
A-3-3-------------5-5-------------| 
E---------3-3--3----------5-5-----| 
 
G-----5---------------7-----------| 
D-------------5---------------7---| 
A-3-3-------------5-5-------------| 
E---------3-3-------------5-5-----| 
 
G-----5---------------7-------7-------| 
D-------------5---------------------7-| 
A-3-3-------------5-5-----5-5---------| 
E---------3-3--3----------------5-5---| 
 
OUTRO: 
G-------------------------------| 
D--------------0--------------0-| 
A----------1-3----111111--1-3---| 
E--333333-----------------------| 
 
G------------------------------| 
D--------------0-------------0-| 
A--555555--1-3----555555--1-3--| 
E------------------------------| 

	  

Search Paypal
auto scroll beats size up size down change color hide chords drawings
tab show chords e-chords YouTube Clip e-chords hide all tabs e-chords go to top tab