Rage Against The Machine

home > Rage Against The M...

Darkness Of Greed Tab

Rage Against The Machine

Difficulty: nolevelnolevel

tuner correct add songbook print version text version save to e-mail
chordsukulelecavacokeyboardtabbassdrumsharmonicsflute Guitar Pro
chords

Darkness Of Greed

  		 
E|-------------12------------------|---------------------------------| 
B|---------12----------12----------|---------------------------------| 
G|-----11----------------------11--|(11)-----------------------------| 
D|-12------------------------------|---------------------------------| 
A|---------------------------------|---------------------------------| 
E|---------------------------------|---------------------------------| 
 
                                  |-------------                       
                                  |-------------                      
                                  |(11)-b12r11--                        
                                  |-------------                      
                                  |-------------                        
                                  |-------------                      
 
|-------------0-------------------|---------------------------------| 
|---------7-----------7-----------|---------------------------------| 
|-----6-----------------------6---|(6)------------------------------| 
|-7-------------------------------|---------------------------------| 
|---------------------------------|---------------------------------| 
|---------------------------------|---------------------------------| 
 
    Baixo 
 
---|---------------------------------|---------------------------------| 
---|---------------------------------|---------------------------------| 
(0)|-7----(0)9----(0)10---(0)12----10|-----9------------------------(0)| 
---|---------------------------------|---------------------------------| 
                                                                          
Baixo 
 
---|---------------------------------|---------------------------------| 
---|-9-------11------12------14----12|-----11--------------------------| 
---|-7-------9-------10------12----10|-----9---------------------------| 
---|---------------------------------|---------------------------------| 
  
Baixo          
 
---|---------------------------------|---------------------------------| 
---|---------------------------------|---------------------------------| 
(0)|-7----(0)9----(0)10---(0)12----10|-----9--------------(0)9--7--5---| 
---|---------------------------------|---------------------------------| 
                                                                         
 
 
|---------------------------------|---------------------------------| 
|---------------------------------|---------------------------------| 
|-----------------------*-----*---|-----------------------*-----*---| 
|-0-2-x-x-x-x-3-2---x-2/12----12-|-0-2-x-x-x-x-3-2---x-2/12----12-| 
|-0-2-x-x-x-x-3-2---x-2/12----12-|-0-2-x-x-x-x-3-2---x-2/12----12-| 
|-0-2-x-x-x-x-3-2---x-2/12----12-|-0-2-x-x-x-x-3-2---x-2/12----12-| 
 
                                                         
|---------------------------------|---------------------------------| 
|---------------------------------|---------------------------------| 
|-----------------------*-----*---|---------------------999-999-999-| 
|-0-2-x-x-x-x-3-2---x-2/12----12-|-0-2-x-x-x-x-3-2---x-------------| 
|-0-2-x-x-x-x-3-2---x-2/12----12-|-0-2-x-x-x-x-3-2---x-777-777-777-| 
|-0-2-x-x-x-x-3-2---x-2/12----12-|-0-2-x-x-x-x-3-2---x-------------| 
                                                                                    
 
 
|---------------------------------|---------------------------------| 
|---------------------------------|---------------------------------| 
|-----------------------*-----*---|-----------------------*-----*---| 
|-0-2-x-x-x-x-3-2---x-2/12----12-|-0-2-x-x-x-x-3-2---x-2/12----12-| 
|-0-2-x-x-x-x-3-2---x-2/12----12-|-0-2-x-x-x-x-3-2---x-2/12----12-| 
|-0-2-x-x-x-x-3-2---x-2/12----12-|-0-2-x-x-x-x-3-2---x-2/12----12-| 
                                                                     
|---------------------------------|---------------------------------| 
|---------------------------------|---------------------------------| 
|-----------------------*-----*---|---------------------------------| 
|-0-2-x-x-x-x-3-2---x-2/12----12-|-0-2-x-x-x-x-3-2---x-3-----------| 
|-0-2-x-x-x-x-3-2---x-2/12----12-|-0-2-x-x-x-x-3-2---x-3-----------| 
|-0-2-x-x-x-x-3-2---x-2/12----12-|-0-2-x-x-x-x-3-2---x-3-----------| 
 
 
|---------------------------------|---------------------------------| 
|---------------------------------|---------------------------------| 
|-5-7---------8-7------(0)8-7-5---|-5-7---------8-7-----8-----------| 
|---------------------------------|---------------------------------| 
                                                                       
 
 
 
 
 
_______________________________________________________ 
Contribuição: Alceu Cintra De Oliveira Neto(AlceuKornSoadRageCypress)([email protected]) 

	  

Search Paypal
auto scroll beats size up size down change color hide chords drawings
tab show chords e-chords YouTube Clip e-chords hide all tabs e-chords go to top tab