Rage Against The Machine

home > Rage Against The M...

Autologic Tab

Rage Against The Machine

Difficulty: nolevelnolevel

tuner correct add songbook print version text version save to e-mail
chordsukulelecavacokeyboardtabbassdrummharmonicsflute Guitar Pro
chords

Autologic

  		 
E|--0------------0----0--------------2/12--| 
B|------2-----------------2----------2/12--| 
G|----------0-----------------0------2/12--| 
D|-----------------------------------2/12--| 
A|-----------------------------------------| 
E|-----------------------------------------| 
 
 
E|-----| 
B|-----| 
G|--7--|   
D|--7--| 
A|--5--| 
E|-----| 
 
 
E|----------------------------------------------------| 
B|----------------------------------------------------| 
G|----------------------------------------------------| 
D|-------------------3--------------------------------| 
A|--3--5-----3--5-5-----5--3---3--5-------3-----------| 
E|-------------------------------------5-----5--3--1--| 
 
E|----------------------------------------------| 
B|----------------------------------------------| 
G|----------------------------------------------| 
D|-------------------3--------------------------| 
A|--3--5-----3--5-5-----5--3---3--5-------------| 
E|-------------------------------------5--4--3--| 
 
 
 
E|-----|---------| 
B|-----|---------| 
G|--7--|--xxxxx--| 
D|--x--|--xxxxx--| 
A|--5--|--xxxxx--| 
E|-----|--xxxxx--| 
 
 
 
E|-------------------|--------| 
B|-------------------|--------| 
G|-------------------|--------| 
D|--5--7--xxxxxxxxx--|-10-10--| 
A|--5--7--xxxxxxxxx--|-10-10--| 
E|--3--5--xxxxxxxxx--|--8--8--| 
 
 
 
E|-----------------|----------9------| 
B|----------8------|------8-------8--| 
G|------7-------7--|--6--------------| 
D|--5--------------|-----------------| 
A|-----------------|-----------------| 
E|-----------------|-----------------| 
 
 
 
E|--^9--| 
B|--^8--| 
G|------| 
D|------| 
A|------| 
E|------| 
 
Solo Voces que se virem, é muito foda, até consigo tirar ele mais ou menos, mas é um saco de  
escrever... 
 
E|-----|--66/10-10-11-10-1212--| 
B|-----|--66/10-10-11-10-1212--| 
G|--7--|--66/10-10-11-10-1212--| 
D|--7--|-----------------------| 
A|--5--|-----------------------| 
E|-----|-----------------------| 
 
 
_______________________________________________________ 
Contribuição: Alceu Cintra De Oliveira Neto(AlceuKornSoadRageCypress)([email protected]) 

	  

Search Paypal
auto scroll beats size up size down change color hide chords drawings
tab show chords e-chords YouTube Clip e-chords hide all tabs e-chords go to top tab