Rage Against The Machine

home > Rage Against The M...

Killing In The Name (without solo) Tab

Rage Against The Machine

Difficulty: BeginnerBeginner

by LucasRATM

tuner correct add songbook print version text version save to e-mail
chordsukulelecavacokeyboardtabbassdrumsharmonicsflute Guitar Pro
chords

Killing In The Name (without solo)

  		Killing In The Name - RATM 
 
Afinação da 6ª corda é em D (ré) 
 
 ~ = Vibrato 
 
             INTRO                (Faça isso na parte q fica só o baixo, na 3ª vez) 
e|--x------x------x------x------|-------------------------------------------------------|| 
B|--3------3------3------3------|-------------------------------------------------------|| 
G|--2------2------2------2------|--------- ~8 ------------------------------------------|| 
D|--0------0------0------0------|-------------------------------------------------------|| 
A|--0------0------0------0------|-------------------------------------------------------|| 
D|--0------0------0------0------|-------------------------------------------------------|| 
 
e|-------------------------------------------------------------------------||   
B|-------------------------------------------------------------------------||   
G|--------------11-12-------------11-12------------11-12----------- ~12 ---|| 2x  
D|--0-0-0-11-12-------0-0-0-11-12-------0-0-0-11-12------0-0-0-11-12-------||   
A|--0-0-0-------------0-0-0-------------0-0-0------------0-0-0-------------||   
D|--0-0-0-------------0-0-0-------------0-0-0------------0-0-0-------------||   
 
e|---------------------------------------------------|| 
B|---------------------------------------------------|| 
G|---------8-8-8--------8-8-8--------8-8-8--------8--|| 
D|--0-0-0--x-x-x--0-0-0-x-x-x--0-0-0-x-x-x--0-0-0-x--|| 
A|--0-0-0--6-6-6--0-0-0-6-6-6--0-0-0-6-6-6--0-0-0-6--|| 
D|--0-0-0---------0-0-0--------0-0-0--------0-0-0----|| 
 
e|----------------------------------|| Vc repete isso 4x e daí entra o vocal,  
B|----------------------------------|| e daí vc faz a mesma coisa mais 4x,  
G|----------------------------------|| só que dessa vez com palm mute. 
D|----------x--3h4-0----------------|| 
A|--0--3h5--x---------0--------0----|| 
D|--0-------x---------0--2h3-2-0----|| 
 
e|--------------------------------------------------------------------|| 
B|--------------------------------------------------------------------|| 
G|--------------------------------------------------------------------|| 2x 
D|--0-------x-------0-------x-------0-------x-------0--------------0--|| 
A|--0--3h5--x---14--0--3h5--x---13--0--3h5--x---12--0--2h3-2h3--2--0--|| 
D|--0-------x-------0-------x-------0-------x-------0--2h3-2h3--2--0--|| 
 
e|------------------------||   ||---------------|| 
B|------------------------||   ||---------------|| 
G|-5--5--5--5--5--5--5--5-||   ||--7-7----7-----|| 4x 
D|-x--x--x--x--x--x--x--x-||   ||--x-x----x-----|| 
A|-3--3--3--3--3--3--3--3-||   ||--5-5----5-----|| 
D|------------------------||   ||---------------|| 
 
e|-------------------------------|| 
B|-------------------------------|| 4x 
G|--7-7---7---7------------------|| 
D|--x-x-x-x-x-x-x-x--x---x-x-x---|| 
A|--5-5-x-5-x-5-x-x--x---x-x-x---|| 
D|------x---x---x-x--x---x-x-x---|| 
 
e|-------------------------------|| 
B|-------------------------------|| 4x 
G|--7-7---7---7-----7-7-7/4------|| 
D|--x-x-x-x-x-x-x---x-x-x/x------|| 
A|--5-5-x-5-x-5-x---5-5-5/2------|| 
D|------x---x---x----------------|| 
 
e|-------------------------------|| 
B|-------------------------------|| 4x 
G|--7777777777777777-------------|| 
D|--xxxxxxxxxxxxxxxx-------------|| 
A|--5555555555555555-------------|| 
D|-------------------------------|| 
 
e|-------------------------------|| 
B|-------------------------------|| 4x 
G|--7-7---7---7------------------|| 
D|--x-x-x-x-x-x-x--------3-------|| 
A|--5-5-x-5-x-5-x--3--5----------|| 
D|------x---x---x--3--5----------|| 
 
e|----------------------------------||   
B|----------------------------------||  
G|----------------------------------|| 4x (palm mute) 
D|----------x--3h4-0----------------|| 
A|--0--3h5--x---------0--------0----|| 
D|--0-------x---------0--2h3-2-0----|| 
 
e|--------------------------------------------------------------------|| 
B|--------------------------------------------------------------------|| 
G|--------------------------------------------------------------------|| 2x 
D|--0-------x-------0-------x-------0-------x-------0--------------0--|| 
A|--0--3h5--x---14--0--3h5--x---13--0--3h5--x---12--0--2h3-2h3--2--0--|| 
D|--0-------x-------0-------x-------0-------x-------0--2h3-2h3--2--0--|| 
 
e|------------------------||   ||---------------|| 
B|------------------------||   ||---------------|| 
G|-5--5--5--5--5--5--5--5-||   ||--7-7----7-----|| 4x 
D|-x--x--x--x--x--x--x--x-||   ||--x-x----x-----|| 
A|-3--3--3--3--3--3--3--3-||   ||--5-5----5-----|| 
D|------------------------||   ||---------------|| 
 
e|-------------------------------|| 
B|-------------------------------|| 4x 
G|--7-7---7---7------------------|| 
D|--x-x-x-x-x-x-x-x--x---x-x-x---|| 
A|--5-5-x-5-x-5-x-x--x---x-x-x---|| 
D|------x---x---x-x--x---x-x-x---|| 
 
e|-------------------------------|| 
B|-------------------------------|| 4x 
G|--7-7---7---7-----7-7-7/2------|| 
D|--x-x-x-x-x-x-x---x-x-x/x------|| 
A|--5-5-x-5-x-5-x---5-5-5/2------|| 
D|------x---x---x----------------|| 
 
e|-------------------------------|| 
B|-------------------------------|| 4x 
G|--7777777777777777-------------|| 
D|--xxxxxxxxxxxxxxxx-------------|| 
A|--5555555555555555-------------|| 
D|-------------------------------|| 
 
e|-------------------------------|| 
B|-------------------------------|| 4x 
G|--7-7---7---7------------------|| 
D|--x-x-x-x-x-x-x--------3-------|| 
A|--5-5-x-5-x-5-x--3--5----------|| 
D|------x---x---x--3--5----------|| 
 
Aqui entra o solo (eu não sei ele), e depois do solo vem isso (cada nota vc tem q fazer 16x bem rápido): 
 
e|--------------------------------------------------------------------------------------|| 
B|--------------------------------------------------------------------------------------|| 
G|--------------------------------------------------------------------------------------|| 
D|--7----9----10---12----14----15----17----19-------------------------------------------|| 
A|--5----7----8----10----12----13----15----17-------------------------------------------|| 
D|--------------------------------------------------------------------------------------|| 
 
e|-------------------------------|| 
B|-------------------------------|| 8x 
G|--7-7---7---7------------------|| 
D|--x-x-x-x-x-x-x--------3-------|| 
A|--5-5-x-5-x-5-x--3--5----------|| 
D|------x---x---x--3--5----------|| 
 
e|-------------------------------------------|| 
B|-------------------------------------------|| 
G|---10-10----10----10----10--10-10----------|| 4x 
D|---x--x--x--x--x--x--x--x---x--x---0-------|| 
A|---8--8--x--8--x--8--x--8---8--8---0-------|| 
D|---------x-----x-----x-------------0-------|| 
 
e|-------------------------------------------------------|| 
B|-------------------------------------------------------|| 
G|--777777777777777777-----------------------8--8--8-----|| 
D|--xxxxxxxxxxxxxxxxxx-------------0--0--0---x--x--x-----|| 
A|--555555555555555555-------------0--0--0---6--6--6-----|| 
D|---------------------------------0--0--0---------------|| 
 
 
 

	  

Full key step upFull key step up
Half key step upHalf key step up
Half key step downHalf key step down
Full key step downFull key step down
Search Paypal
auto scroll beats size up size down change color hide chords drawings
tab show chords e-chords YouTube Clip e-chords hide all tabs e-chords go to top tab