Rage Against The Machine

home > Rage Against The M...

Killing In The Name Of Tab

Rage Against The Machine

Difficulty: ExpertExpert

by sabrjoao

tuner correct add songbook print version text version save to e-mail
chordsukulelecavacokeyboardtabbassdrumsharmonicsflute Guitar Pro
chords

Killing In The Name Of

  		e|---------------------------------------------------------------------------| 
B|-3----------3----------3----------3----------------------------------------| 
G|-2----------2----------2----------2----------------------------------------| 
D|-0----------0----------0----------0----------------------------------------| 
A|-0----------0----------0----------0----------------------------------------| 
D|-0----------0----------0----------0----------------------------------------| 

e|---------------------------------------------------------------------------| 
B|---------------------------------------------------------------------------| 
G|---------------------------------------------------------------------------| 
D|-------------9v~~~---------------------------------------------------------| 
A|---------------------------------------------------------------------------| 
D|---------------------------------------------------------------------------| 

Parte 2 
e|---------------------------------------------------------------------------| 
B|---------------------------------------------------------------------------| 
G|------------------------11--12---------------------------------------------| 
D|-----------------11--12----------------------------------------------------| 
A|---------------------------------------------------------------------------| 
D|--0---0-----0--------------------------------------------------------------| 

e|---------------------------------------------------------------------------| 
B|---------------------------------------------------------------------------| 
G|------------------------11--12---------------------------------------------| 
D|-----------------11--12----------------------------------------------------| 
A|---------------------------------------------------------------------------| 
D|--0---0-----0--------------------------------------------------------------| 

e|---------------------------------------------------------------------------| 
B|---------------------------------------------------------------------------| 
G|------------------------11--12---------------------------------------------| 
D|-----------------11--12----------------------------------------------------| 
A|---------------------------------------------------------------------------| 
E|--0---0-----0--------------------------------------------------------------| 

e|---------------------------------------------------------------------------| 
B|---------------------------------------------------------------------------| 
G|------------------------12b------------------------------------------------| 
D|-----------------11--12----------------------------------------------------| 
A|---------------------------------------------------------------------------| 
E|--0---0-----0--------------------------------------------------------------| 

e|---------------------------------------------------------------------------| 
B|---------------------------------------------------------------------------| 
G|------------------------------------------------------------------8--8-----| 
D|---------------------------------------------------------------------------| 
A|-----------6--6--6-----------6--6--6-----------6--6--6------------6--6-----| 
E|--0--0--0-----------0--0--0-----------0--0--0------------0--0--0-----------| 

e|---------------------------------------------------------------------------| X 4 
B|---------------------------------------------------------------------------| 
G|---------------------------------------------------------------------------| 
D|------------3h4------------------------------------------------------------| 
A|--0--3h5-xx-----5--0--2h3-2------------------------------------------------| 
E|--0------xx--------0--2h3-2------------------------------------------------| 

   verso: 
e|---------------------------------------------------------------------------| X 7 
B|---------------------------------------------------------------------------| 
G|---------------------------------------------------------------------------| 
D|------------3h4------------------------------------------------------------| 
A|--0--3h5-xx-----5--0--2h3-2------------------------------------------------| 
E|--0------xx--------0--2h3-2------------------------------------------------| 
       ......        ........ 

e|---------------------------------------------------------------------------| X 1 
B|---------------------------------------------------------------------------| 
G|---------------------------------------------------------------------------| 
D|------------3h4------------------------------------------------------------| 
A|--0--3h5-xx-----5--0--2h3-2------------------------------------------------| 
E|--0------xx--------0--2h3-2------------------------------------------------| 
       ......             
e|---------------------------------------------------------------------------| 
B|---------------------------------------------------------------------------| 
G|---------------------------------------------------------------------------| 
D|----------------9--------------8-----------------7-------------------------| 
A|--0---3h5--xx-------0---3h5-xx-----0---3h5--xx----------2h3-2h3-2----------| 
E|--0--------xx-------0-------xx-----0--------xx-------0--2h3-2h3-2----------| 

e|---------------------------------------------------------------------------| 
B|---------------------------------------------------------------------------| 
G|---------------------------------------------------------------------------| 
D|----------------9----------------8-----------------7----5-5-5-5-5-5-5-5----| 
A|--0---3h5--xx-------0---3h5--xx----0---3h5--xx----------3-3-3-3-3-3-3-3----| 
E|--0--------xx-------0--------xx----0--------xx-----------------------------| 
                                                          ............... 


e|---------------------------------------------------------------------------| 
B|---------------------------------------------------------------------------| 
G|-----7--7----7-------------7--7----7----------7--7----7----------7--7----7-| 
D|---------------------------------------------------------------------------| 
A|-----5--5----5-------------5--5----5----------5--5----5----------5--5----5-| 
E|---------------------------------------------------------------------------| 
                 

e|---------------------------------------------------------------------------|x4 
B|---------------------------------------------------------------------------| 
G|-----7--7---x7---xxxxxxxxxx------------------------------------------------| 
D|------------x----xxxxxxxxxx------------------------------------------------| 
A|-----5--5---x5---xxxxxxxxxx------------------------------------------------| 
E|---------------------------------------------------------------------------| 

Nesta parte,você pode optar em fazer o slide athe a primeira casa  
e|---------------------------------------------------------------------------|x3 
B|---------------------------------------------------------------------------| 
G|-----7--7---x7---xxxxx-7\\\3-------------------------------------------| 
D|------------x----xxxxx-----------------------------------------------------| 
A|-----5--5---x5---xxxxx-5\\\1-------------------------------------------| 
E|---------------------------------------------------------------------------| 

e|---------------------------------------------------------------------------|x1 
B|---------------------------------------------------------------------------| 
G|-----7--7---x7-//19-19-19-19-19-19-19-19-19-19\---------------------------| 
D|------------x--------------------------------------------------------------| 
A|-----5--5---x5-//17-17-17-17-17-17-17-17-17-17\---------------------------| 
E|---------------------------------------------------------------------------| 
    Chorus: 
e|---------------------------------------------------------------------------|x8 
B|---------------------------------------------------------------------------| 
G|----7--7---x--7---x--7---x-------------------------------------------------| 
D|-----------x------x------x-------------------------------------------------| 
A|----5--5---x--5---x--5---x--3--5---3---------------------------------------| 
E|----------------------------3--5-------------------------------------------| 
     Verso: 

 verso: 
e|---------------------------------------------------------------------------| X 3 
B|---------------------------------------------------------------------------| 
G|---------------------------------------------------------------------------| 
D|------------3h4------------------------------------------------------------| 
A|--0--3h5-xx-----5--0--2h3-2------------------------------------------------| 
E|--0------xx--------0--2h3-2------------------------------------------------| 
       ......        ........ 

 verse:                              whammy bar~ 
e|---------------------------------------------------------------------------| X 1 
B|---------------------------------------------------------------------------| 
G|-----------------------------------10~-------------------------------------| 
D|------------3h4-----------10-11-12-----------------------------------------| 
A|--0--3h5-xx------10-11-12--------------------------------------------------| 
E|--0------xx----------------------------------------------------------------| 
       ......  
                                   

verso: 
e|---------------------------------------------------------------------------| X 3 
B|---------------------------------------------------------------------------| 
G|---------------------------------------------------------------------------| 
D|------------3h4------------------------------------------------------------| 
A|--0--3h5-xx-----5--0--2h3-2------------------------------------------------| 
E|--0------xx--------0--2h3-2------------------------------------------------| 
       ......        ........ 

e|---------------------------------------------------------------------------| X 1 
B|---------------------------------------------------------------------------| 
G|---------------------------------------------------------------------------| 
D|------------3h4------------------------------------------------------------| 
A|--0--3h5-xx-----5--0--2h3-2------------------------------------------------| 
E|--0------xx--------0--2h3-2------------------------------------------------| 

e|---------------------------------------------------------------------------| 
B|---------------------------------------------------------------------------| 
G|---------------------------------------------------------------------------| 
D|----------------9--------------8-----------------7-------------------------| 
A|--0---3h5--xx-------0---3h5-xx-----0---3h5--xx----------2h3-2h3-2----------| 
E|--0--------xx-------0-------xx-----0--------xx-------0--2h3-2h3-2----------| 

e|---------------------------------------------------------------------------| 
B|---------------------------------------------------------------------------| 
G|---------------------------------------------------------------------------| 
D|----------------9----------------8-----------------7----5-5-5-5-5-5-5-5----| 
A|--0---3h5--xx-------0---3h5--xx----0---3h5--xx----------3-3-3-3-3-3-3-3----| 
E|--0--------xx-------0--------xx----0--------xx-----------------------------| 
                                                          ............... 


e|---------------------------------------------------------------------------| 
B|---------------------------------------------------------------------------| 
G|-----7--7----7-------------7--7----7----------7--7----7----------7--7----7-| 
D|---------------------------------------------------------------------------| 
A|-----5--5----5-------------5--5----5----------5--5----5----------5--5----5-| 
E|---------------------------------------------------------------------------| 
                

e|---------------------------------------------------------------------------|x4 
B|---------------------------------------------------------------------------| 
G|-----7--7---x7---xxxxxxxxxx------------------------------------------------| 
D|------------x----xxxxxxxxxx------------------------------------------------| 
A|-----5--5---x5---xxxxxxxxxx------------------------------------------------| 
E|---------------------------------------------------------------------------| 

e|---------------------------------------------------------------------------|x3 
B|---------------------------------------------------------------------------| 
G|-----7--7---x7---xxxxx-7\\\--------------------------------------------| 
D|------------x----xxxxx-----------------------------------------------------| 
A|-----5--5---x5---xxxxx-5\\\\------------------------------------------| 
E|---------------------------------------------------------------------------| 

e|---------------------------------------------------------------------------|x1 
B|---------------------------------------------------------------------------| 
G|-----7--7---x7-//19-19-19-19-19-19-19-19-19-19\---------------------------| 
D|------------x--------------------------------------------------------------| 
A|-----5--5---x5-//17-17-17-17-17-17-17-17-17-17\---------------------------| 
E|---------------------------------------------------------------------------| 
    Chorus: 
e|---------------------------------------------------------------------------|x8 
B|---------------------------------------------------------------------------| 
G|----7--7---x--7---x--7---x-------------------------------------------------| 
D|-----------x------x------x-------------------------------------------------| 
A|----5--5---x--5---x--5---x--3--5---3---------------------------------------| 
E|----------------------------3--5-------------------------------------------| 
      

Aqui vocêpode optar por dois tipos de solo : 
Com pedal Whammy com 2 oitavas acima(está no book da banda) 

e|---------------------------------------------------------------------------| 
B|---------------------------------------------------------------------------| 
G|---17-----------14-14-14----------12-12-12----------10-10-10---------------| 
D|--------------------------------------------------------------------0------| 
A|--------15-15-15---------12-12-12----------10-10-10----------8-8-8---------| 
E|---------------------------------------------------------------------------| 

e|---------------------------------------------------------------------------| 
B|---------------------------------------------------------------------------| 
G|---7-7-7-------5-------7~--------------------------------------------------| 
D|---------------------------------------------------------------------------| 
A|---------5-5-5---3-3-3-----------------------------------------------------| 
E|---------------------------------------------------------------------------| 
      tr~~~~~~~~                      tr~~~~~~~~ 
e|---------------------------------------------------------------------------| 
B|---(10-13)10-----------(10-13)---------------------------------------------| 
G|---------------------------------------------------------------------------| 
D|-----------------10--------------------------------------------------------| 
A|--------------------12---------x/--(10-12)-----(10)-10h12p10h12-(12)x/---| 
E|---------------------------------------------------------------------------| 

e|---------------------------------------------------------------------------| 
B|---------------------------------------------------------------------------| 
G|-19~-------21--------13-------(13)----------------------------------------| 
D|---------0/--------0/------------------------------------------------------| 
A|---------------------------------------------------------------------------| 
E|---------------------------------------------------------------------------| 

Ouesta versão que até mesmo Tom Morello faz em seus vídeos soh q usando um pedal de expressão 

e|--------------------------------------------------------------------------| 
B|---13-13-13--10-10-10-----------------------------------------------------| 
G|-----------------------12-12-12--10-10-10----------------------/14vvvvv---| 
D|-------------------------------------------12-12-12-10-10-10--------------| 
A|--------------------------------------------------------------------------| 
D|--------------------------------------------------------------------------| 

Essa versão,na minha opinião ,é a mais fácil e requer apenas o pedal de exp 
e|--------------------------------------------------------------------------| 
B|---13-13-13--10-10-10-----------------------------------------------------| 
G|-----------------------12-12-12--10-10-10---------------------------------| 
D|-------------------------------------------12-12-12-10-10-10--/12vvvvv----| 
A|--------------------------------------------------------------------------| 
D|--------------------------------------------------------------------------| 
 * Aplique hammer no 10h13 e tbm no 10h12 
e|--------------------------------------------------------------------------| 
B|--10h13*---10h13*---------------------------------------------------------| 
G|----------------------------------------/17vv----/19vvvv---/13vvvv--------| 
D|---------------------10h12*--10h12*---------------------------------------| 
A|--------------------------------------------------------------------------| 
D|--------------------------------------------------------------------------| 

Bridge 
Aqui vc pode fazer a batida que quiserdesde que esteja no ritmo da música 
e|--------------------------------------------------------------------------| 
B|--------------------------------------------------------------------------| 
G|-7----9----10----12----14----15----17-------------------------------------| 
D|--------------------------------------------------------------------------| 
A|-5----7-----8----10----12----13----15-------------------------------------| 
D|--------------------------------------------------------------------------| 

Chorus: 
e|--------------------------------------------------------------------------|x8 
B|--------------------------------------------------------------------------| 
G|----7--7---x--7---x--7---x------------------------------------------------| 
D|-----------x------x------x------------------------------------------------| 
A|----5--5---x--5---x--5---x--3--5---3--------------------------------------| 
E|----------------------------3--5------------------------------------------| 
      
e|---5--x-x--5-5-5-5--xx--5-5-5-5-------------------------------------------|x4 
B|---6--x-x--6-6-6-6--xx--6-6-6-6-------------------------------------------| 
G|---5--x-x--5-5-5-5--xx--5-5-5-5-------------------------------------------| 
D|---7--x-x--7-7-7-7--xx--7-7-7-7-------------------------------------------| 
A|---5--x-x--5-5-5-5--xx--5-5-5-5-------------------------------------------| 
E|--------------------------------------------------------------------------| 
     tremolo pick this 24 times 
e|--------------------------------------------------------------------------| 
B|---7tr--------------------------------------------------------------------| 
G|--------------------------------------------------------------------------| 
D|---5tr--------------------------------------------------------------------| 
A|------------------6--6--6-(6)--------------------------------------------| 
E|---------0--0--0----------------------------------------------------------| 
                             whammy bar~~~~~~~ 


Qualquer dúvida [email protected] 

| /  slide up 
|   slide down 
| h  hammer-on 
| p  pull-off 
| ~  vibrato 
| +  harmonic 
| x  Mute note 
	  

Search Paypal
auto scroll beats size up size down change color hide chords drawings
tab show chords e-chords YouTube Clip e-chords hide all tabs e-chords go to top tab