Rafael Escalona

La Casa En El Aire

Rafael Escalona

tabs Expert expert

by  ROBEPOIEL

save to print version add songbook text version e-mail correct tuner
chordsukulelecavacokeyboardtabbassdrumsharmonicaflute Guitar Pro
close

there isn't a video lesson for this song

chords

La Casa En El Aire

	  		E|--3-2-0-3-3-3-3-2-5-2-| 
B|-3--------------------| 
G|----------------------| 
D|----------------------| 
A|----------------------| 
E|----------------------| 

E |--2-0-2-2-2-2-0-3----| 
B |-3---3---------------| 
G |---------------------| 
D |---------------------| 
A |---------------------| 
E |---------------------| 

E |--3-2-0-0-0-0-2-0----| 
B |-3-----------3---1---| 
G |---------------------| 
D |---------------------| 
A |---------------------| 
E |---------------------| 

E |--2-0---------0------| 
B |-3---3-3-3-3-1-3-----| 
G |---------------------| 
D |---------------------| 
A |---------------------| 
E |---------------------| 
		  

See also:

tabs Misc Computer Games - Assassins Creed 3 Theme tabs Misc Computer Games - Dark Souls 3 - Fireline Shrine tabs Misc Television - Family Guy - Iraq Lobster tabs Andy James - Separation tabs Misc Computer Games - The Elder Scrolls Iii Morrowind - Call Of Magic tabs Bruno Mars - Click Clack Away
e-chords

Other versions:

tabs Rafael Escalona - La Casa En El Aire
auto scroll beats size up size down change color hide chords drawings
tab show chords e-chords YouTube Clip e-chords hide all tabs e-chords go to top tab

share with facebook