Misc Computer Games

Undertale - Dogsong

Misc Computer Games

tabs

by  DEIVCAVALCANTI

save to print version add songbook text version e-mail correct tuner
chordsukulelecavacokeyboardtabbassdrumsharmonicaflute Guitar Pro
close

there isn't a video lesson for this song

chords

Undertale - Dogsong

	  		Intro 

e|----4--1-------------------------------------------------------------------| 
B|----------2--4-2------2------2--1--2-4-------------------------------------| 
G|------------------1-3-----3------------------------------------------------| 
D|---------------------------------------------------------------------------| 
A|---------------------------------------------------------------------------| 
E|---------------------------------------------------------------------------| 

e|----4--1----------------2-1------------------------------------------------| 
B|----------2--4-2------2-----4--4-2--------2---2----------------------------| 
G|------------------1-3--------------3--3------------------------------------| 
D|---------------------------------------------------------------------------| 
A|---------------------------------------------------------------------------| 
E|---------------------------------------------------------------------------| 


Verse 

e|---------------------------------------------------------------------------| 
B|------------2-1------------------------------------------------------------| 
G|---3--3--3------3-1-3------------------------------------------------------| 
D|--------------------------3--3--1--3-4-3-1---------------------------------| 
A|---------------------------------------------------------------------------| 
E|---------------------------------------------------------------------------| 

e|---------------------------------------------------------------------------| 
B|------------2-1-----------1-----1--4-2-1----1-1-1-1-4-2-1------------------| 
G|---3--3--3------3-1-3--------1---------------------------------------------| 
D|---------------------------------------------------------------------------| 
A|---------------------------------------------------------------------------| 
E|---------------------------------------------------------------------------| 

These last 7 notes are just for the end of the song, so play them if you are going to loop back to 
the beginning 
		  

auto scroll beats size up size down change color hide chords drawings
tab show chords e-chords YouTube Clip e-chords hide all tabs e-chords go to top tab

share