Quiet Riot

Come on feel the noise (com solo)

Quiet Riot

tabs Advanced advanced

by  END_KURT

save to print version add songbook text version e-mail correct tuner
chordsukulelecavacokeyboardtabbassdrumsharmonicaflute Guitar Pro
close

there isn't a video lesson for this song

chords

Come on feel the noise (com solo)

	  		Quiet Riot - Come On Feel The Noize 
 
 
Come on feel the noise 
Girls rock your boys 
We'll get wild, wild, wild, 
Wild, wild, wild 
G          			     B			E 
So you think I got an evil mind, I'll tell you honey 
    A	     G      D	 
And I don't know why 
    A	     G      D	 
And I don't know why 
G          			     B			E 
So you think my singing's out of time, it makes me money 
    A	     G      D	 
And I don't know why 
    A	     G      D	 
And I don't know why anymore 
E   D  
Oh no 
 
{Chorus}: 
       G           F#       E  
So come on feel the noise 
G        F#      E  
Girls rock your boys 
A            G           D  
We'll get wild, wild, wild, 
A     G      D  
Wild, wild, wild, 
     G           F#       E  
come on feel the noise 
G        F#      E  
Girls rock your boys 
A            G           D  
We'll get wild, wild, wild, 
 
G          			     B			E 
So you think I got a funny face, I got no worries 
    A	     G      D	 
And I don't know why 
    A	     G      D	 
And I don't know why 
 
G          			     B			E 
So I'm a scruff bag well it's no disgrace, I'm in no hurry 
    A	     G      D	 
And I don't know why 
    A	     G      D	 
I don't know why anymore 
 
E    D 
Oh no 
 
{Chorus} 
 
{Solo} 
 
 
 
 
 
E|--------------------------------12-15b17b15-14-15-14p15p14-12-14-12p14p12---~ 
A|----------------------------13/15---------------------------------------15<-~ 
D|--------------------13/15-13/15---------------------------------------------~ 
g|------------13/15-13/15-13/15-----------------------------------------------~ 
b|----13/15-13/15-13/15-------------------------------------------------------~ 
e|--13/15-13/15---------------------------------------------------------------~ 
 
e|----------------------------------------------------------------------------------- 
b|->12-13-15-13-12-13-12----12----------------12-13-15-13-12-13-12----12----------12- 
g|-----------------------14----14-12/11/12-14----------------------14----12b14b12~--- 
D|----------------------------------------------------------------------------------- 
A|----------------------------------------------------------------------------------- 
E|----------------------------------------------------------------------------------- 
 
e|--15b17-15b17-15b17b15-14-15-15/17-15-14--------15b17-15b17-15b17b15-14-15-15/17-15 
b|-----------------------------------------15<->12----------------------------------- 
g|----------------------------------------------------------------------------------- 
D|----------------------------------------------------------------------------------- 
A|----------------------------------------------------------------------------------- 
E|----------------------------------------------------------------------------------- 
 
 
e|-14---------17b19-17b19~~~-19b17-15/17-19-17~~-15p19p15-17p15-17p15-15p19p15-17p15- 
b|----15<->15------------------------------------------------------------------------ 
g|----------------------------------------------------------------------------------- 
D|----------------------------------------------------------------------------------- 
A|----------------------------------------------------------------------------------- 
E|----------------------------------------------------------------------------------- 
 
e|-17p15----15p17p15----------------------------------------------------12-15b17b15-~ 
b|-------19----------19p17p15----15~~~~---------------------------13/15-------------- 
g|----------------------------17--------------------------13/15-13/15---------------- 
D|------------------------------------------------13/15-13/15-13/15------------------ 
A|----------------------------------------13/15-13/15-13/15-------------------------- 
E|--------------------------------------13/15-13/15---------------------------------- 
 
e|-14-15-14-17p15-17p15p14-17p15p14-------15-17-19-20b~-20b~~~----------------------- 
b|----------------------------------15/17-------------------------------------------- 
g|----------------------------------------------------------------------------------- 
D|----------------------------------------------------------------------------------- 
A|----------------------------------------------------------------------------------- 
E|----------------------------------------------------------------------------------- 
 
G          			     B			E 
So you think we are the lazy type, you should know better 
    A	     G      D	 
And I don't know why      {Lick 1} 
    A	     G      D		 
And I don't know why 
 
{Lick 1} 
 
e|-------------------------------------------------- 
b|--------------------------------11-12-14-12-11---- 
g|---------7-8-10-8-7-8~~-~8>>12<<--------------11~~ 
D|---5>>9<<----------------------------------------- 
A|-------------------------------------------------- 
E|-------------------------------------------------- 
 
 
 
G          			     B			E 
 
And you say I got a dirty mind, I'm a mean go getter 
    A	     G      D	 
And I don't know why      {Lick 2} 
    A	     G         D	 
And I don't know why    anymore 
 
{Lick 2} 
 
e|------------------------------------------------------ 
b|--------------------------------11-12-14-12-11-------- 
g|---------7-8-10-8-7-8~~-~8>>12<<--------------11~~10~~ 
D|---5>>9<<--------------------------------------------- 
A|------------------------------------------------------ 
E|------------------------------------------------------ 
 
 
Oh no 
 
  |Come on feel the noise {Lick 3} 
  |						     
  |Girls rock your boys 
 2| 
 x|We get wild, wild, wild, 
  | 
  |Wild, wild, wild... 
 
 
 
 
Passe a palheta nas cordas... 
 
e|------------------------------------------------------ 
b|------------------------------------------------------ 
g|------------------------------------------------------ 
D|------------------------------------------------------ 
A|-----<<<<<<<<<<<<<<<<<<<<<<<<<<<<<<<<<<<<----------- 
E|->>>>>>>>>>>>>>>>>>>>>>>>>>>>>>>>>>>>>-------------- 
 
{Solo 2} no final da música 
  
e|----------------------------------------------------------------------------------17b19-17b19-- 
b|-----12-13-15-13-12-------------------12-13-15-15b17-15b17b15-15b-15b-15b-15b17-15------------- 
g|--------------------14-12~~-----12-14---------------------------------------------------------- 
D|->14--------------------->14--------------------------------------------------------------- 
A|----------------------------------------------------------------------------------------------- 
E|----------------------------------------------------------------------------------------------- 
 
e|-19b17--15-14p15-14p15-14p15-14p15------------------------------------------------- 
b|----------------17----17----17----17?17p15p14----15p14----------------------------- 
g|----------------------------------------------16-------16p14/13-13p14----13-------- 
D|----------------------------------------------------------------------16---16-14/16 
A|----------------------------------------------------------------------------------- 
E|----------------------------------------------------------------------------------- 
 
e|------------------18/20-18-20----------------------------------------------------- 
b|----------16/18/20-----------18b20b18/16-16-18-16-15p16---15----------------------           g|-----14/16/18------------------------------------------17----17-15p14---15-------- 
D|--14/16---------------------------------------------------------------17?17-15//17 
A|---------------------------------------------------------------------------------- 
E|---------------------------------------------------------------------------------- 
 
e|------------------------------------------------------------------------- 
b|--20p20p20-20-20-20-20<<<<-20-20-20-20-20-20b22-20b22-20b22b20...-------- 
g|------------------------------------------------------------------------- 
D|------------------------------------------------------------------------- 
A|------------------------------------------------------------------------- 
E|------------------------------------------------------------------------- 
 

		  

See also:

tabs Quiet Riot - Come on feel the noise (com solo) tabs Tenacious D - One Note Song tabs Tenacious D - Her Gently tabs Tenacious D - Wonderboy (ver. 1) tabs Prince - Purple rain (solo) tabs Soundtracks - Lord Of The Rings Theme
e-chords

Other versions:

tabs Quiet Riot - Come on feel the noise (com solo) tabs Quiet Riot - Come on feel the noise (ver.2)
auto scroll beats size up size down change color hide chords drawings
tab show chords e-chords YouTube Clip e-chords hide all tabs e-chords go to top tab

share