Quiet Riot

Come on feel the noise (ver.2)

Quiet Riot

tabs Easy easy

by  STEELERSFAN123

save to print version add songbook text version e-mail correct tuner
chordsukulelecavacokeyboardtabbassdrumsharmonicaflute Guitar Pro
close

there isn't a video lesson for this song

chords

Come on feel the noise (ver.2)

	  		band: quiet riot 
song: come on feel the noise 
tabed by: Zack yak 
 
 
 
verse: 
 
 
         G                 B                E 
G|--------------------------------------------------------| 
D|--------------------------------------------------------| 
A|-------------------2-2-2-2-2-2-2-2----------------------| 
E|--3-3-3-3-3-3-3-3-------------------0-0-0-0-0-0-0-0-----| 
    
  so you think i got an evil mind, ill tell you honey.... 
 
 
      A         G           D 
G|--------------------------------------| 
D|--------------------------------------| 
A|----0---------------------5-----------| 
E|--------------3-----------------------| 
 
   And i dont know why, i dont know why.... 
 
 
         E             D 
G|-------------------------------------| 
D|-------------------------------------| 
A|----7-7-7-7-7-7--5-5-5-5-5-5-5-------| 
E|-------------------------------------| 
 
   any more, ohh no... 
 
 
 
Chorus: 
 
      G        F#     E       G        F#        E 
G|------------------------|----------------------------| 
D|------------------------|----------------------------| 
A|------------------------|----------------------------| 
E|----3--------2-------0--|---3---------2--------0-----| 
 
     come on feel the noise, girls rock the boys..... 
 
 
      A       G      D            A     G         D 
G|-------------------------|--------------------------------| 
D|-------------------------|--------------------------------| 
A|----0----------------5---|------0---------------5---------| 
E|------------3------------|------------3-------------------| 
  
   we get wild, wild, wild...        wild, wild, wild.... 
 
 
 
 
And do the same thing again 
 
 
 
 
 
  
 

		  

Full key step upFull key step up
Half key step upHalf key step up
Half key step downHalf key step down
Full key step downFull key step down
hide glossary

See also:

tabs Soundtracks - Forrest Gump - Theme tabs Jesus Christ Superstar - Overture tabs Dick dale - Miserlou 2 tabs Poison - Every rose has its thorn tabs Soundtracks - Ghostbusters Theme tabs John Williams - Star wars theme
e-chords

Other versions:

tabs Quiet Riot - Come on feel the noise (com solo) tabs Quiet Riot - Come on feel the noise (ver.2)
auto scroll beats size up size down change color hide chords drawings
tab show chords e-chords YouTube Clip e-chords hide all tabs e-chords go to top tab

share