Queens Of The Stone Age

You think I ain't Worth a Dollar, But I feel like a Millionaire

Queens Of The Stone Age

tabs Advanced advanced

save to print version add songbook text version e-mail correct tuner
chordsukulelecavacokeyboardtabbassdrumsharmonicaflute Guitar Pro
close

there isn't a video lesson for this song

chords

You think I ain't Worth a Dollar, But I feel like a Millionaire

	  		 
Guitarra 1: 
 
                                                                          
C ||------|------|------|------|------|------|------|-------------------| 
G ||------|------|------|------|------|------|------|-------------------| 
D#||------|------|------|------|------|------|------|-------------------| 
A#||------|------|------|------|------|------|------|----------------5--| 
F ||------|------|------|------|------|------|------|-------------------| 
C ||------|------|------|------|------|------|------|-------------------| 
 
 
                                                                               
-------------------------|-------------------------|-------------------------| 
-------------------------|-------------------------|-------------------------| 
-------------------------|-------------------------|-------------------------| 
--7----------------------|----------------------5--|--7----------------------| 
-------------------------|-------------------------|-------------------------| 
-----0--0--0--0--0----0--|--0--0--0--0----0--0-----|-----0--0--0--0--0----0--| 
 
 
                                                                                
-------------------------|-------------------------|--------------------------| 
-------------------------|-------------------------|--------------------------| 
-------------------------|-------------------------|--------------------------| 
----------------------5--|--7----------------------|-----------------------7--| 
-------------------------|-------------------------|--------------7--5--7-----| 
--0--0--0--0----0--0-----|-----0--0--0--0--0----0--|--0--0--0--0--------------| 
 
 
                                                                                
-------------------------|-------------------------|--------------------------| 
-------------------------|-------------------------|--------------------------| 
-------------------------|-------------------------|--------------------------| 
--5----------------------|----------------------5--|--7-----------------------| 
-------------------------|-------------------------|--------------------------| 
-----0--0--0--0--0----0--|--0--0--0--0----0--0-----|-----0--0--0--0--0--0--0--| 
 
 
                                                       
--------------------------|--------------------------| 
--------------------------|--------------------------| 
--------------------------|--------------------------| 
-----------------------5--|--7-----------------------| 
--------------------------|--------------------------| 
--0--0--0--0--0--0--0-----|-----0--0--0--0--0--0--0--| 
 
 
                                                       
--------------------------|--------------------------| 
--------------------------|--------------------------| 
--------------------------|--------------------------| 
-----------------------5--|--7-----------------------| 
--------------------------|--------------------------| 
--0--0--0--0--0--0--0-----|-----0--0--0--0--0--0--0--| 
 
 
                                                       
--------------------------|--------------------------| 
--------------------------|--------------------------| 
--------------------------|--------------------------| 
-----------------------5--|--7-----------------------| 
--------------------------|--------------------------| 
--0--0--0--0--0--0--0-----|-----0--0--0--0--0--0--0--| 
 
 
                                                       
--------------------------|--------------------------| 
--------------------------|--------------------------| 
--------------------------|--------------------------| 
-----------------------5--|--7-----------------------| 
--------------------------|--------------------------| 
--0--0--0--0--0--0--0-----|-----0--0--0--0--0--0--0--| 
 
 
                                                       
--------------------------|--------------------------| 
--------------------------|--------------------------| 
--------------------------|--------------------------| 
-----------------------5--|--7-----------------------| 
--------------------------|--------------------------| 
--0--0--0--0--0--0--0-----|-----0--0--0--0--0--0--0--| 
 
 
                                                       
--------------------------|--------------------------| 
--------------------------|--------------------------| 
--------------------------|--------------------------| 
-----------------------5--|--7-----------------------| 
--------------------------|--------------------------| 
--0--0--0--0--0--0--0-----|-----0--0--0--0--0--0--0--| 
 
 
                                                                              
--------------------------|--------------------------|----------------------| 
--------------------------|--------------------------|----------------------| 
--------------------------|--------------------------|----------------------| 
-----------------------5--|--7-----------------------|----------------------| 
--------------------------|--------------------------|----------------------| 
--0--0--0--0--0--0--0-----|-----0--0--0--0--0--0--0--|--0--0--0--0----------| 
 
 
                                                                
----------------------|--------------------|------------------| 
----------------------|--------------------|------------------| 
----------------------|--------------------|------------------| 
----------------5-----|--------------------|------------------| 
----------5--7-----7--|--5--7--------------|------------------| 
----------------------|--------------------|------------------| 
 
 
                                                                  
-------------------------|-------------------|------------------| 
--------------10--8/-----|------x------------|------------------| 
--7--9--7--9-------------|-------------------|------------------| 
-------------------------|-------------------|------------------| 
-------------------------|-------------------|------------------| 
-------------------------|-------------------|------------------| 
 
 
                                                                             
------------------|------------------|------------------|------------------| 
------------------|------------------|------------------|------------------| 
------------------|------------------|------------------|------------------| 
------------------|------------------|------------------|------------------| 
------------------|------------------|------------------|------------------| 
------------------|------------------|------------------|------------------| 
 
 
                                                                             
------------------|------------------|------------------|------------------| 
------------------|------------------|------------------|------------------| 
------------------|------------------|------------------|------------------| 
------------------|------------------|------------------|------------------| 
------------------|------------------|------------------|------------------| 
------------------|------------------|------------------|------------------| 
 
 
                                                                             
------------------|------------------|------------------|------------------| 
------------------|------------------|------------------|------------------| 
------------------|------------------|------------------|------------------| 
------------------|------------------|------------------|------------------| 
------------------|------------------|------------------|------------------| 
------------------|------------------|------------------|------------------| 
 
 
                                                                             
------------------|------------------|------------------|------------------| 
------------------|------------------|------------------|------------------| 
------------------|------------------|------------------|------------------| 
------------------|------------------|------------------|------------------| 
------------------|------------------|------------------|------------------| 
------------------|------------------|------------------|------------------| 
 
 
                                                                
------------------|------------------|------------------------| 
------------------|------------------|------------------------| 
------------------|------------------|------------------------| 
------------------|------------------|--------------7--5h7h5--| 
------------------|------------------|--------5--7------------| 
------------------|------------------|------------------------| 
 
 
                                                                                
--------------------|--------------------------|------------------------------| 
--------------------|--------------------------|----------15--12--15--12------| 
--------------------|------------------12--14--|--12--14----------------------| 
--------------------|----------12--14----------|------------------------------| 
--7--7--------------|--------------------------|------------------------------| 
--------------------|--------------------------|------------------------------| 
 
 
                                                                             
------------------|------------------|------------------|------------------| 
------------------|------------------|------------------|------------------| 
------------------|------------------|------------------|------------------| 
------------------|------------------|------------------|------------------| 
------------------|------------------|------------------|------------------| 
------------------|------------------|------------------|------------------| 
 
 
                                                                                 
------------------|--------------------------------|---------------------------| 
------------------|--------------------------------|---------------------------| 
------------------|--------------------------------|---------------------------| 
------------------|----12--14----------------------|---------------------------| 
------------------|------------12--14--------------|---------------------------| 
------------------|--------------------12--14--10--|--12--0--0--0--0--0--0--0--| 
 
 
                                                           
-------------------------------|-------------------------| 
-------------------------------|-------------------------| 
-------------------------------|-------------------------| 
-------12h14h12----12--14b-----|-------------------------| 
----------------14-------------|-------------------------| 
--0----------------------------|----0--0--0--0--0--0--0--| 
 
 
                                                               
---------------------------------|---------------------------| 
---------------------------------|---------------------------| 
---------------------------------|---------------------------| 
-----12--14----------------------|---------------------------| 
-------------12--14--------------|---------------------------| 
--0------------------12--14--10--|--12--0--0--0--0--0--0--0--| 
 
 
                                                               
---------------------------------|---------------------------| 
---------------------------------|---------------------------| 
---------------------------------|---------------------------| 
-----12--14----------------------|---------------------------| 
-------------12--14--------------|---------------------------| 
--0------------------12--14--10--|--12--0--0--0--0--0--0--0--| 
 
 
                                                                     
---------------------------------|---------------------------|-----| 
---------------------------------|---------------------------|-----| 
---------------------------------|---------------------------|-----| 
-----12--14----------------------|---------------------------|-----| 
-------------12--14--------------|---------------------------|-----| 
--0------------------12--14--10--|--12--0--0--0--0--0--0--0--|--0--| 
 
 
                                                                      
----------------------------|------------------|--------------------| 
----------------------------|------------------|----------------15--| 
------14r-----14-14h16-12---|------------------|--------------------| 
----------------------------|------------------|--------------------| 
----------------------------|------------------|--------------------| 
----------------------------|------------------|--------------------| 
 
 
                                                                            
--------------------------------|----|----|----|--------------------------| 
--17----------------------------|----|----|----|--------------------------| 
------14--16--------------------|----|----|----|--------------------------| 
--------------14--16--12--14----|----|----|----|--------------------------| 
--------------------------------|----|----|----|--------------------------| 
--------------------------------|----|----|----|--0--0--0--0--0--0--0--0--| 
 
 
                                                       
--------------------------|--------------------------| 
--------------------------|--------------------------| 
--------------------------|--------------------------| 
-----------------------5--|--7-----------------------| 
--------------------------|--------------------------| 
--0--0--0--0--0--0--0-----|-----0--0--0--0--0--0--0--| 
 
 
                                                       
--------------------------|--------------------------| 
--------------------------|--------------------------| 
--------------------------|--------------------------| 
-----------------------5--|--7-----------------------| 
--------------------------|--------------------------| 
--0--0--0--0--0--0--0-----|-----0--0--0--0--0--0--0--| 
 
 
                                                       
--------------------------|--------------------------| 
--------------------------|--------------------------| 
--------------------------|--------------------------| 
-----------------------7--|--5-----------------------| 
--------------7--5--7-----|--------------------------| 
--0--0--0--0--------------|-----0--0--0--0--0--0--0--| 
 
 
                                                           
-------------------------------|-------------------------| 
---------------------------15b-|-------------------------| 
-------------------12----------|-------------------------| 
-----------12--14------14------|-------------------------| 
-------------------------------|-------------------------| 
--0--0--0----------------------|----0--0--0--0--0--0--0--| 
 
 
                                                           
-------------------------------|-------------------------| 
---------------------------15b-|-------------------------| 
-------------------12----------|-------------------------| 
-----------12--14------14------|-------------------------| 
-------------------------------|-------------------------| 
--0--0--0----------------------|----0--0--0--0--0--0--0--| 
 
 
                                                           
-------------------------------|-------------------------| 
---------------------------15b-|-------------------------| 
-------------------12----------|-------------------------| 
-----------12--14------14------|-------------------------| 
-------------------------------|-------------------------| 
--0--0--0----------------------|----0--0--0--0--0--0--0--| 
 
 
                                                                                 
-------------------------------|-------------------------|---------------------| 
---------------------------15b-|-------------------------|---------------------| 
-------------------12----------|-------------------------|---------------------| 
-----------12--14------14------|-------------------------|---------------------| 
-------------------------------|-------------------------|---------------------| 
--0--0--0----------------------|----0--0--0--0--0--0--0--|--0--0--0------------| 
 
 
                                                          
--------------------------|--------|--------------------| 
--------------------------|--15b---|----------------15--| 
------------------12------|--------|--------------------| 
----------12--14------14--|--------|--------------------| 
--------------------------|--------|--------------------| 
--------------------------|--------|--------------------| 
 
 
                                   
--------------------------------|| 
--17----------------------------|| 
------14--16--------------------|| 
--------------14--16--12--14----|| 
--------------------------------|| 
--------------------------------|| 
 
************************************ 
 
Guitarra 2: 
 
                                                                           
C ||------|------|------|------|------|------|------|------|------|------| 
G ||------|------|------|------|------|------|------|------|------|------| 
D#||------|------|------|------|------|------|------|------|------|------| 
A#||------|------|------|------|------|------|------|------|------|------| 
F ||------|------|------|------|------|------|------|------|------|------| 
C ||------|------|------|------|------|------|------|------|------|------| 
 
 
                                                        
------|------|------|------|------|-------------------| 
------|------|------|------|------|-------------------| 
------|------|------|------|------|-------------------| 
------|------|------|------|------|----------------5--| 
------|------|------|------|------|-------------------| 
------|------|------|------|------|-------------------| 
 
 
                                                       
--------------------------|--------------------------| 
--------------------------|--------------------------| 
--------------------------|--------------------------| 
--7-----------------------|-----------------------5--| 
--------------------------|--------------------------| 
-----0--0--0--0--0--0--0--|--0--0--0--0--0--0--0-----| 
 
 
                                                       
--------------------------|--------------------------| 
--------------------------|--------------------------| 
--------------------------|--------------------------| 
--7-----------------------|-----------------------5--| 
--------------------------|--------------------------| 
-----0--0--0--0--0--0--0--|--0--0--0--0--0--0--0-----| 
 
 
                                                       
--------------------------|--------------------------| 
--------------------------|--------------------------| 
--------------------------|--------------------------| 
--7-----------------------|-----------------------5--| 
--------------------------|--------------------------| 
-----0--0--0--0--0--0--0--|--0--0--0--0--0--0--0-----| 
 
 
                                                       
--------------------------|--------------------------| 
--------------------------|--------------------------| 
--------------------------|--------------------------| 
--7-----------------------|-----------------------5--| 
--------------------------|--------------------------| 
-----0--0--0--0--0--0--0--|--0--0--0--0--0--0--0-----| 
 
 
                                                       
--------------------------|--------------------------| 
--------------------------|--------------------------| 
--------------------------|--------------------------| 
--7-----------------------|-----------------------5--| 
--------------------------|--------------------------| 
-----0--0--0--0--0--0--0--|--0--0--0--0--0--0--0-----| 
 
 
                                                       
--------------------------|--------------------------| 
--------------------------|--------------------------| 
--------------------------|--------------------------| 
--7-----------------------|-----------------------5--| 
--------------------------|--------------------------| 
-----0--0--0--0--0--0--0--|--0--0--0--0--0--0--0-----| 
 
 
                                                       
--------------------------|--------------------------| 
--------------------------|--------------------------| 
--------------------------|--------------------------| 
--7-----------------------|-----------------------5--| 
--------------------------|--------------------------| 
-----0--0--0--0--0--0--0--|--0--0--0--0--0--0--0-----| 
 
 
                                                                                 
--------------------------|-------------------------|--------------------------| 
--------------------------|-------------------------|--------------------------| 
--------------------------|-------------------------|--------------------------| 
--7-----------------------|-----------7--7--7--5----|--5--5--5--5--5--5--5--5--| 
--------------------------|-----------7--7--7--5----|--5--5--5--5--5--5--5--5--| 
-----0--0--0--0--0--0--0--|--0--0--0--5--5--5--3----|--3--3--3--3--3--3--3--3--| 
 
 
                                                                                 
-------------------------|--------------------------|--------------------------| 
-------------------------|--------------------------|--------------------------| 
-------------------------|--------------------------|--------------------------| 
--5--5--5--7--7--7--5----|--5--5--5--5--5--5--5--5--|--5--5--5--5--5--5--5--5--| 
--5--5--5--7--7--7--5----|--5--5--5--5--5--5--5--5--|--5--5--5--5--5--5--5-----| 
--3--3--3--5--5--5--3----|--3--3--3--3--3--3--3--3--|--3--3--3--3--3--3--3-----| 
 
 
                                                       
--------------------------|--------------------------| 
--------------------------|--------------------------| 
--------------------------|--------------------------| 
--7-----------------------|-----------------------5--| 
--------------------------|--------------------------| 
-----0--0--0--0--0--0--0--|--0--0--0--0--0--0--0-----| 
 
 
                                                       
--------------------------|--------------------------| 
--------------------------|--------------------------| 
--------------------------|--------------------------| 
--7-----------------------|-----------------------5--| 
--------------------------|--------------------------| 
-----0--0--0--0--0--0--0--|--0--0--0--0--0--0--0-----| 
 
 
                                                       
--------------------------|--------------------------| 
--------------------------|--------------------------| 
--------------------------|--------------------------| 
--7-----------------------|-----------------------5--| 
--------------------------|--------------------------| 
-----0--0--0--0--0--0--0--|--0--0--0--0--0--0--0-----| 
 
 
                                                       
--------------------------|--------------------------| 
--------------------------|--------------------------| 
--------------------------|--------------------------| 
--7-----------------------|-----------------------5--| 
--------------------------|--------------------------| 
-----0--0--0--0--0--0--0--|--0--0--0--0--0--0--0-----| 
 
 
                                                       
--------------------------|--------------------------| 
--------------------------|--------------------------| 
--------------------------|--------------------------| 
--7-----------------------|-----------------------7--| 
--------------------------|--------------7--5--7-----| 
-----0--0--0--0--0--0--0--|--0--0--0--0--------------| 
 
 
                                                       
--------------------------|--------------------------| 
--------------------------|--------------------------| 
--------------------------|--------------------------| 
--5-----------------------|-----------------------5--| 
--------------------------|--------------------------| 
-----0--0--0--0--0--0--0--|--0--0--0--0--0--0--0-----| 
 
 
                                                       
--------------------------|--------------------------| 
--------------------------|--------------------------| 
--------------------------|--------------------------| 
--7-----------------------|-----------------------5--| 
--------------------------|--------------------------| 
-----0--0--0--0--0--0--0--|--0--0--0--0--0--0--0-----| 
 
 
                                                       
--------------------------|--------------------------| 
--------------------------|--------------------------| 
--------------------------|--------------------------| 
--7-----------------------|-----------------------5--| 
--------------------------|--------------------------| 
-----0--0--0--0--0--0--0--|--0--0--0--0--0--0--0-----| 
 
 
                                                       
--------------------------|--------------------------| 
--------------------------|--------------------------| 
--------------------------|--------------------------| 
--7-----------------------|-----------------------5--| 
--------------------------|--------------------------| 
-----0--0--0--0--0--0--0--|--0--0--0--0--0--0--0-----| 
 
 
                                                                                 
--------------------------|-------------------------|--------------------------| 
--------------------------|-------------------------|--------------------------| 
--------------------------|-------------------------|--------------------------| 
--7-----------------------|-----------7--7--7--5----|--5--5--5--5--5--5--5--5--| 
--------------------------|-----------7--7--7--5----|--5--5--5--5--5--5--5--5--| 
-----0--0--0--0--0--0--0--|--0--0--0--5--5--5--3----|--3--3--3--3--3--3--3--3--| 
 
 
                                                                                 
-------------------------|--------------------------|--------------------------| 
-------------------------|--------------------------|--------------------------| 
-------------------------|--------------------------|--------------------------| 
--5--5--5--7--7--7--5----|--5--5--5--5--5--5--5--5--|--5--5--5--5--5--5--5--5--| 
--5--5--5--7--7--7--5----|--5--5--5--5--5--5--5--5--|--5--5--5--5--5--5--5-----| 
--3--3--3--5--5--5--3----|--3--3--3--3--3--3--3--3--|--3--3--3--3--3--3--3-----| 
 
 
                                                       
--------------------------|--------------------------| 
--------------------------|--------------------------| 
--------------------------|--------------------------| 
--7-----------------------|-----5--7-----------------| 
--------------------------|-----------5--7-----------| 
-----0--0--0--0--0--0--0--|--0--------------5--7--3--| 
 
 
                                                       
--------------------------|--------------------------| 
--------------------------|--------------------------| 
--------------------------|--------------------------| 
--------------------------|-----5--7-----------------| 
--------------------------|-----------5--7-----------| 
--5--0--0--0--0--0--0--0--|--0--------------5--7--3--| 
 
 
                                                       
--------------------------|--------------------------| 
--------------------------|--------------------------| 
--------------------------|--------------------------| 
--------------------------|-----5--7-----------------| 
--------------------------|-----------5--7-----------| 
--5--0--0--0--0--0--0--0--|--0--------------5--7--3--| 
 
 
                                                       
--------------------------|--------------------------| 
--------------------------|--------------------------| 
--------------------------|--------------------------| 
--------------------------|-----5--7-----------------| 
--------------------------|-----------5--7-----------| 
--5--0--0--0--0--0--0--0--|--0--------------5--7--3--| 
 
 
                                                       
--------------------------|--------------------------| 
--------------------------|--------------------------| 
--------------------------|--------------------------| 
--------------------------|-----5--7-----------------| 
--------------------------|-----------5--7-----------| 
--5--0--0--0--0--0--0--0--|--0--------------5--7--3--| 
 
 
                                                       
--------------------------|--------------------------| 
--------------------------|--------------------------| 
--------------------------|--------------------------| 
--------------------------|-----5--7-----------------| 
--------------------------|-----------5--7-----------| 
--5--0--0--0--0--0--0--0--|--0--------------5--7--3--| 
 
 
                                                       
--------------------------|--------------------------| 
--------------------------|--------------------------| 
--------------------------|--------------------------| 
--------------------------|-----5--7-----------------| 
--------------------------|-----------5--7-----------| 
--5--0--0--0--0--0--0--0--|--0--------------5--7--3--| 
 
 
                                                                                 
--------------------------|-------------------------|--------------------------| 
--------------------------|-------------------------|--------------------------| 
--------------------------|-------------------------|--------------------------| 
--------------------------|-----5--7--7--7--7--5----|--5--5--5--5--5--5--5--5--| 
--------------------------|-----------7--7--7--5----|--5--5--5--5--5--5--5--5--| 
--5--0--0--0--0--0--0--0--|--0--------5--5--5--3----|--3--3--3--3--3--3--3--3--| 
 
 
                                                       
-------------------------|---------------------------| 
-------------------------|---------------------------| 
-------------------------|---------------------------| 
--5--5--5--7--7--7--5----|--5--5--5--5--5--5--5--12--| 
--5--5--5--7--7--7--5----|--5--5--5--5--5--5--5------| 
--3--3--3--5--5--5--3----|--3--3--3--3--3--3--3------| 
 
 
                                                                            
--------------------------------|----|----|----|--------------------------| 
--------------------------------|----|----|----|--------------------------| 
--------------------------------|----|----|----|--------------------------| 
--14----------------------------|----|----|----|--------------------------| 
------12--14--------------------|----|----|----|--------------------------| 
--------------12--14--10--12----|----|----|----|--0--0--0--0--0--0--0--0--| 
 
 
                                                       
--------------------------|--------------------------| 
--------------------------|--------------------------| 
--------------------------|--------------------------| 
-----------------------5--|--7-----------------------| 
--------------------------|--------------------------| 
--0--0--0--0--0--0--0-----|-----0--0--0--0--0--0--0--| 
 
 
                                                       
--------------------------|--------------------------| 
--------------------------|--------------------------| 
--------------------------|--------------------------| 
-----------------------5--|--7-----------------------| 
--------------------------|--------------------------| 
--0--0--0--0--0--0--0-----|-----0--0--0--0--0--0--0--| 
 
 
                                                       
--------------------------|--------------------------| 
--------------------------|--------------------------| 
--------------------------|--------------------------| 
-----------------------7--|--5-----------------------| 
--------------7--5--7-----|--------------------------| 
--0--0--0--0--------------|-----0--0--0--0--0--0--0--| 
 
 
                                                       
--------------------------|--------------------------| 
--------------------------|--------------------------| 
--------------------------|--------------------------| 
-----------------------5--|--7-----------------------| 
--------------------------|--------------------------| 
--0--0--0--0--0--0--0-----|-----0--0--0--0--0--0--0--| 
 
 
                                                       
--------------------------|--------------------------| 
--------------------------|--------------------------| 
--------------------------|--------------------------| 
-----------------------5--|--7-----------------------| 
--------------------------|--------------------------| 
--0--0--0--0--0--0--0-----|-----0--0--0--0--0--0--0--| 
 
 
                                                       
--------------------------|--------------------------| 
--------------------------|--------------------------| 
--------------------------|--------------------------| 
-----------------------5--|--7-----------------------| 
--------------------------|--------------------------| 
--0--0--0--0--0--0--0-----|-----0--0--0--0--0--0--0--| 
 
 
                                                                                 
--------------------------|--------------------------|-------------------------| 
--------------------------|--------------------------|-------------------------| 
--------------------------|--------------------------|-------------------------| 
-----------------------5--|--7-----------------------|-----------7--7--7--5----| 
--------------------------|--------------------------|-----------7--7--7--5----| 
--0--0--0--0--0--0--0-----|-----0--0--0--0--0--0--0--|--0--0--0--5--5--5--3----| 
 
 
                                                      
--------------------------|-------------------------| 
--------------------------|-------------------------| 
--------------------------|-------------------------| 
--5--5--5--5--5--5--5--5--|--5--5--5--7--7--7--5----| 
--5--5--5--5--5--5--5--5--|--5--5--5--7--7--7--5----| 
--3--3--3--3--3--3--3--3--|--3--3--3--5--5--5--3----| 
 
 
                                                               
---------------------------|--------------------------------|| 
---------------------------|--------------------------------|| 
---------------------------|--------------------------------|| 
--5--5--5--5--5--5--5--12--|--14----------------------------|| 
--5--5--5--5--5--5--5------|------12--14--------------------|| 
--3--3--3--3--3--3--3------|--------------12--14--10--12----|| 
 
, 
CIFRADA por Henrique Pontes 
 
 
_______________________________________________________ 
Contribuição: Henrique Pontes([email protected]) 

		  

See also:

tabs The Smiths - Heaven Knows I'm Miserable Now tabs Eagles - Hotel California tabs The Beatles - All My Loving tabs Deep Purple - Smoke On The Water (Easy Intro) tabs Dire Straits - Sultans of Swing tabs Santana - Maria Maria
e-chords

Other versions:

tabs Queens Of The Stone Age - You think I ain't Worth a Dollar, But I feel like a Millionaire
auto scroll beats size up size down change color hide chords drawings
tab show chords e-chords YouTube Clip e-chords hide all tabs e-chords go to top tab

share