Porcupine Tree

home > Porcupine Tree

Arriving Somewhere But Not Here Tab

Porcupine Tree

Difficulty: BeginnerBeginner

by alexribeiro

tuner correct add songbook print version text version save to e-mail
chordsukulelecavacokeyboardtabbassdrumsharmonicsflute Guitar Pro
chords

Arriving Somewhere But Not Here

  		|---------------------|--------------|---------------------|----------| 
|---------------------|--------------|---------------------|----------| 
|---------------------|--------------|---------------------|----------| 
|-2--2--2--2--|-(2)--------|---------------------|----------| 
|---------------------|--------------|---------|-()--------|----------| 
|---------------------|--------------|---------------------|----------| 

|-------------------------|---------------|---------------------|----------| 
|-------------------------|---------------|---------------------|----------| 
|-------------------------|---------------|---------------------|----------| 
|---------|-()------------|---------------|---------------------|----------| 
|-------------------------|---------------|---------|-()--------|----------| 
|-------------------------|---------------|---------------------|----------| 

|---------------------|--------------|---------------------|----------| 
|---------------------|--------------|---------------------|----------| 
|---------------------|--------------|---------------------|----------| 
|-2--2--2--2--|-(2)--------|---------------------|----------| 
|---------------------|--------------|---------|-()--------|----------| 
|---------------------|--------------|---------------------|----------| 

|-------------------------|---------------| 
|-------------------------|---------------| 
|-------------------------|---------------| 
|-------------------------|---------------| 
|-------------------------|---------------| 
|-------------------------|---------------| 

|-------------------------|---------------| 
|-------------------------|---------------| 
|-------------------------|---------------| 
|---------|-()------------|---------------| 
|-------------------------|---------------| 
|-------------------------|---------------| 

|---------------------|------------------| 
|---------------------|---------------10-| 
|---------------------|------------------| 
|---------------------|------------------| 
|---------------------|------------------| 
|---------------------|------------------| 

|---------------------|------------------| 
|---------------------|------------------| 
|---------------------|------------------| 
|---------------------|------------------| 
|---------|-()--------|------------------| 
|---------------------|------------------| 

|----------------------|---------------------| 
|-(10)h======11--------|-(11)p=10----(10)p===| 
|----------------------|---------------------| 
|----------------------|---------------------| 
|----------------------|---------------------| 
|----------------------|---------------------| 

|----------------------|---------------------| 
|----------------------|---------------------| 
|----------------------|---------------------| 
|--2--2--2--2--|-(2)---------------| 
|----------------------|---------------------| 
|----------------------|---------------------| 

|-----------------------|--------------------| 
|--8h==10--\5-(5)h==6---|--(6)-----(6)-5h6p5-| 
|-----------------------|--------------------| 
|-----------------------|--------------------| 
|-----------------------|--------------------| 
|-----------------------|--------------------| 

|-----------------------|--------------------| 
|-----------------------|--------------------| 
|-----------------------|--------------------| 
|-----------------------|--------------------| 
|-----------|-()--------------| 
|-----------------------|--------------------| 

|---------------------------------|----------------------| 
|---8--10p8---6--10p6---5---------|----6p==5--(5)--2--3--| 
|---------------------------------|----------------2--0--| 
|---------------------------------|----------------------| 
|---------------------------------|----------------------| 
|---------------------------------|----------------------| 

|---------------------------------|----------------------| 
|--(5)----------------------------|----------------------| 
|---------------------------------|----------------------| 
|---------------------------------|----------------------| 
|---------------------------------|----------------------| 
|---------------------------------|----------------------| 

|---------------------------------|----------------------| 
|---------------------------------|----------------------| 
|---------------------------------|----------------------| 
|-----------------|-()---------------| 
|---------------------------------|----------------------| 
|---------------------------------|----------------------| 

|--1----------------------|--(1)---------------------------------| 
|-------------------------|--------------------------------------| 
|-------------------------|--------------------------------------| 
|-------------------------|--------------------------------------| 
|-------------------------|--------------------------------------| 
|-------------------------|--------------------------------------| 

|-------------------------|--------------------------------------| 
|-------------------------|--------------------------------------| 
|---------------/14-(14)--|-(14)h=15p14-12--(12)h14h15-17-14h15--| 
|-------------------------|--------------------------------------| 
|-------------------------|--------------------------------------| 
|-------------------------|--------------------------------------| 

|-------------------------|--------------------------------------| 
|-------------------------|--------------------------------------| 
|-------------------------|--------------------------------------| 
|-------------------------|--------------------------------------| 
|-------------|-()--------------------------------| 
|-------------------------|--------------------------------------| 

|-------0-(0)------|---------0-(0)------|--------------0--(0)-----------| 
|-------------3----|---------------3----|---------------------3---------| 
|-----2------------|-------2------------|---------2---------------------| 
|--0---------------|---0----------------|---0---------------------------| 
|------------------|--------------------|-------------------------------| 
|------------------|--------------------|-------------------------------| 

|------------------|--------------------|-------------------------------| 
|-10---------------|-(10)---------------|-(10)h11h==13---(13)-----11p10-| 
|------------------|--------------------|-------------------------------| 
|------------------|--------------------|-------------------------------| 
|------------------|--------------------|-------------------------------| 
|------------------|--------------------|-------------------------------| 

|-------0-(0)------|---------0-(0)------|---------0-(0)----------| 
|-------------3----|---------------3----|---------------3--------| 
|-----2------------|-------2------------|-------2----------------| 
|--0---------------|---0----------------|---0--------------------| 
|------------------|--------------------|------------------------| 
|------------------|--------------------|------------------------| 

|------------------|--------------------|------------------------| 
|-11---------------|-(11)---------------|-(11)h============13----| 
|------------------|--------------------|------------------------| 
|------------------|--------------------|------------------------| 
|------------------|--------------------|------------------------| 
|------------------|--------------------|------------------------| 

|---------0-(0)----------|-------0-(0)------|---------0-(0)------|---------0-(0)-------| 
|---------------3--------|-------------3----|---------------3----|--------------3------| 
|-------2----------------|-----2------------|-------2------------|-------2-------------| 
|---0--------------------|--0---------------|---0----------------|---0-----------------| 
|------------------------|------------------|--------------------|---------------------| 
|------------------------|------------------|--------------------|---------------------| 

|------------------------|------------------|--------------------|---------------------| 
|-(13)-------------10h11-|-10---------------|-(10)---------------|-(10)----------------| 
|------------------------|------------------|--------------------|-----------10h===12--| 
|------------------------|------------------|--------------------|---------------------| 
|------------------------|------------------|--------------------|---------------------| 
|------------------------|------------------|--------------------|---------------------| 

|---------0-(0)------|---------0-(0)-----------|----------0-(0)-------| 
|---------------3----|---------------3---------|----------------3-----| 
|-------2------------|-------2-----------------|--------2-------------| 
|---0----------------|---0---------------------|--0-------------------| 
|--------------------|-------------------------|----------------------| 
|--------------------|-------------------------|----------------------| 

|--------------------|-------------------------|----------------------| 
|--------------------|-------------------------|----------------------| 
|-(12)---------------|-(12)-------------(12)-9h|=10p9-----------------| 
|--------------------|-------------------------|----------------------| 
|--------------------|-------------------------|----------------------| 
|--------------------|-------------------------|----------------------| 

|--------0-(0)-----------------|---------0-(0)------| 
|---------------3--------------|---------------3----| 
|------3-----------------------|------3-------------| 
|--0---------------------------|--0-----------------| 
|------------------------------|--------------------| 
|------------------------------|--------------------| 

|------------------------------|--------------------| 
|------------------------------|--------------------| 
|-(9)------(9)-(9)b10-(9)-(9)--|-(9)----------------| 
|------------------------------|--------------------| 
|------------------------------|--------------------| 
|------------------------------|--------------------| 

|------0-(0)------|------0-(0)-------| 
|------------3----|------------3-----| 
|----3------------|----3-------------| 
|-0---------------|-0----------------| 
|-----------------|------------------| 
|-----------------|------------------| 

|-----------------|------------------| 
|-----------------|------------------| 
|-----------------|------------------| 
|-----------------|------------------| 
|-----------------|------------------| 
|-----------------|------------------| 

||-------0-(0)------|------0-(0)------|------0-(0)------|------0-(0)-------| 
||o------------3----|------------3----|------------3----|------------3-----| 
||-----2------------|----2------------|----2------------|----2-------------| 
||--0---------------|-0---------------|-0---------------|-0----------------| 
||o-----------------|-----------------|-----------------|------------------| 
||------------------|-----------------|-----------------|------------------| 

|------0-(0)------|------0-(0)------|------0-(0)------|------0-(0)-------|| 
|------------3----|------------3----|------------3----|------------3----o|| 
|----3------------|----3------------|----3------------|----3-------------|| 
|-0---------------|-0---------------|-0---------------|-0----------------|| 
|-----------------|-----------------|-----------------|-----------------o|| 
|-----------------|-----------------|-----------------|------------------|| 

|------5-(5)------|------5-(5)------|------5-(5)------|------5-(5)------| 
|------------6----|------------6----|------------6----|------------6----| 
|----5------------|----5------------|----4------------|----4------------| 
|-0---------------|-0---------------|-0---------------|-0---------------| 
|-----------------|-----------------|-----------------|-----------------| 
|-----------------|-----------------|-----------------|-----------------| 

|------5-(5)------|------5-(5)------|------5-(5)------|---------------------| 
|------------6----|------------6----|------------6----|------5-(5)-6-(6)s8s=| 
|----3------------|----3------------|----3------------|----3----------------| 
|-0---------------|-0---------------|-0---------------|-0-------------------| 
|-----------------|-----------------|-----------------|---------------------| 
|-----------------|-----------------|-----------------|---------------------| 

||---------0-(0)------|------0-(0)------|------0-(0)------|------0-(0)-------| 
||o-(5)----------3----|------------3----|------------3----|------------3-----| 
||-------2------------|----2------------|----2------------|----2-------------| 
||---0----------------|-0---------------|-0---------------|-0----------------| 
||o-------------------|-----------------|-----------------|------------------| 
||--------------------|-----------------|-----------------|------------------| 

|------0-(0)------|------0-(0)------|------0-(0)------|------0-(0)-------|| 
|------------3----|------------3----|------------3----|------------3----o|| 
|----3------------|----3------------|----3------------|----3-------------|| 
|-0---------------|-0---------------|-0---------------|-0----------------|| 
|-----------------|-----------------|-----------------|-----------------o|| 
|-----------------|-----------------|-----------------|------------------|| 

|------5-(5)------|------5-(5)------|------5-(5)------|------5-(5)------| 
|------------6----|------------6----|------------6----|------------6----| 
|----5------------|----5------------|----4------------|----4------------| 
|-0---------------|-0---------------|-0---------------|-0---------------| 
|-----------------|-----------------|-----------------|-----------------| 
|-----------------|-----------------|-----------------|-----------------| 

|------5-(5)------|------5-(5)------|------5-(5)------|---------------------| 
|------------6----|------------6----|------------6----|------5-(5)-6-(6)s8s=| 
|----3------------|----3------------|----3------------|----3----------------| 
|-0---------------|-0---------------|-0---------------|-0-------------------| 
|-----------------|-----------------|-----------------|---------------------| 
|-----------------|-----------------|-----------------|---------------------| 

|--------0-(0)------|------0-(0)------|------0-(0)------|------0-(0)------| 
|-(5)----------3----|------------3----|------------3----|------------3----| 
|------2------------|----2------------|----2------------|----2------------| 
|--0----------------|-0---------------|-0---------------|-0---------------| 
|-------------------|-----------------|-----------------|-----------------| 
|-------------------|-----------------|-----------------|-----------------| 

||--1----1-(1)--1--|-(1)----1--(1)-(1)-|-3----3-(3)-3-3--|-(3)----3--3-3--| 
||o-1----1-(1)--1--|-(1)----1--(1)-(1)-|-5----5-(5)-5-5--|-(5)----5--5-5--| 
||--3----3-(3)--3--|-(3)----3--(3)-(3)-|-5----5-(5)-5-5--|-(5)----5--5-5--| 
||-----------------|-------------------|-----------------|----------------| 
||o----------------|-------------------|-----------------|----------------| 
||-----------------|-------------------|-----------------|----------------| 

|-3----------3--|-(3)----3------|-3----------3--|-(3)----3-------|| 
|-0----0-0-0-0--|-(0)----0--0-0-|-0----0-0-0-0--|-(0)----0--0-0-o|| 
|-0----0-0-0-0--|-(0)----0--0-0-|-0----0-0-0-0--|-(0)----0--0-0--|| 
|---------------|---------------|---------------|----------------|| 
|---------------|---------------|---------------|---------------o|| 
|---------------|---------------|---------------|----------------|| 

|-1----1-(1)--1--|-(1)----1--(1)-(1)-|-3--------|-(3)-----| 
|-1----1-(1)--1--|-(1)----1--(1)-(1)-|-5--------|-(5)-----| 
|-3----3-(3)--3--|-(3)----3--(3)-(3)-|-5--------|-(5)-----| 
|----------------|-------------------|----------|---------| 
|----------------|-------------------|----------|---------| 
|----------------|-------------------|----------|---------| 

|---------------------|----------------------| 
|---------------------|----------------------| 
|-12s14---------------|-(14)------(14)-17----| 
|---------------------|----------------------| 
|---------------------|----------------------| 
|---------------------|----------------------| 

|----------0-(0)------|---------0--(0)-------| 
|----------------3----|-----------------3----| 
|--------3------------|-------3--------------| 
|-----0---------------|---0------------------| 
|---------------------|----------------------| 
|---------------------|----------------------| 

|-------------------------|--------------------------| 
|-------------------------|--------------------------| 
|-12s14s12------(12)------|-(12)-------------10h12---| 
|-------------------------|--------------------------| 
|-------------------------|--------------------------| 
|-------------------------|--------------------------| 

|-------------0--(0)------|---------0-(0)------------| 
|--------------------3----|---------------3----------| 
|-----------3-------------|-------3------------------| 
|-----0-------------------|---0----------------------| 
|-------------------------|--------------------------| 
|-------------------------|--------------------------| 

|----------------------------|--------------------| 
|----------------------------|--------------------| 
|-12b14--(12)b14=============|=(12)---------------| 
|----------------------------|--------------------| 
|----------------------------|--------------------| 
|----------------------------|--------------------| 

|-----------------0-(0)------|---------0-(0)------| 
|-----------------------3----|---------------3----| 
|----------2-----------------|-------2------------| 
|--0-------------------------|---0----------------| 
|----------------------------|--------------------| 
|----------------------------|--------------------| 

|------------------------|----------------------------------------| 
|------------------------|--------------------10h=====11p10p8-----| 
|-(12)-------------(12)r=|=(12)--(12)------12-----------------12--| 
|------------------------|--------------12------------------------| 
|------------------------|----------------------------------------| 
|------------------------|----------------------------------------| 

|---------0-(0)----------|------------0-------(0)-----------------| 
|---------------3--------|------------------------3---------------| 
|-------2----------------|---------2------------------------------| 
|---0--------------------|---0------------------------------------| 
|------------------------|----------------------------------------| 
|------------------------|----------------------------------------| 

|-------------------------|------------------------| 
|-10------10h=11p10p8-10--|-(10)----10h11-13-------| 
|-------------------------|------------------------| 
|-------------------------|------------------------| 
|-------------------------|------------------------| 
|-------------------------|------------------------| 

|-------0-(0)-------------|----------0----(0)------| 
|-----------------3-------|-------------------3----| 
|-----3-------------------|-------3----------------| 
|--0----------------------|---0--------------------| 
|-------------------------|------------------------| 
|-------------------------|------------------------| 

|-------------------------|-----------------------| 
|-(13)----11p10-(10)------|-(10)------(10)--------| 
|-------------------------|----------------10h12--| 
|-------------------------|-----------------------| 
|-------------------------|-----------------------| 
|-------------------------|-----------------------| 

|----------0-----(0)------|---------0--(0)--------| 
|--------------------3----|-----------------3-----| 
|-------3-----------------|-------3---------------| 
|---0---------------------|---0-------------------| 
|-------------------------|-----------------------| 
|-------------------------|-----------------------| 

|-----------------------|--------------------| 
|-----------------------|--------------------| 
|-(12)------------------|--------------------| 
|---------15h17p=====14-|-(14)---------------| 
|-----------------------|--------------------| 
|-----------------------|--------------------| 

|----------0-(0)--------|---------0-(0)------| 
|----------------3------|---------------3----| 
|-------2---------------|-------2------------| 
|---0-------------------|---0----------------| 
|-----------------------|--------------------| 
|-----------------------|--------------------| 

|--------------------------|---------------------------| 
|--------------------17----|----18-------17---------13-| 
|--------------------------|---------------------------| 
|-(14)------(14)-14-----14s|=15------\14--------\10----| 
|--------------------------|---------------------------| 
|--------------------------|---------------------------| 

|---------0--(0)-----------|-----------0-(0)-----------| 
|-----------------3--------|-----------------3---------| 
|-------2------------------|-------2-------------------| 
|---0----------------------|--0------------------------| 
|--------------------------|---------------------------| 
|--------------------------|---------------------------| 

|-------------------------|------------------| 
|-(13)----10-------8------|-10---------------| 
|-------------------------|------------------| 
|------\7----7s=5-----5s7-|------------------| 
|-------------------------|------------------| 
|-------------------------|------------------| 

|------------0-(0)--------|-------0-(0)------| 
|------------------3------|-------------3----| 
|----------3--------------|-----3------------| 
|---0---------------------|--0---------------| 
|-------------------------|------------------| 
|-------------------------|------------------| 

|---------------------|-------------------------------| 
|-10-----11-(11)------|-(11)------11------(11)p10p8---| 
|---------------------|-------------------------------| 
|---------------------|-------------------------------| 
|---------------------|-------------------------------| 
|---------------------|-------------------------------| 

|---------0--(0)------|---------0-(0)-----------------| 
|----------------3----|---------------3---------------| 
|------3--------------|-------3-----------------------| 
|--0------------------|---0---------------------------| 
|---------------------|-------------------------------| 
|---------------------|-------------------------------| 

|-----------------------|--------------------| 
|-10--------------(10)--|-(10)---------------| 
|-----------------------|--------------------| 
|-----------------------|--------------------| 
|-----------------------|--------------------| 
|-----------------------|--------------------| 

|--------5-(5)----------|---------5-(5)------| 
|--------------6--------|---------------6----| 
|------5----------------|-------5------------| 
|--0--------------------|---0----------------| 
|-----------------------|--------------------| 
|-----------------------|--------------------| 

|--------------------|------------------| 
|-(10)---------------|-10---------------| 
|--------------------|------------------| 
|--------------------|------------------| 
|--------------------|------------------| 
|--------------------|------------------| 

|---------5-(5)------|-------5-(5)------| 
|---------------6----|-------------6----| 
|-------4------------|-----4------------| 
|---0----------------|--0---------------| 
|--------------------|------------------| 
|--------------------|------------------| 

|----------------------------|----------------------------| 
|-(10)-------------(10)b11===|=(10)-------------(10)r(10)-| 
|----------------------------|----------------------------| 
|----------------------------|----------------------------| 
|----------------------------|----------------------------| 
|----------------------------|----------------------------| 

|---------5-(5)--------------|---------5-(5)--------------| 
|---------------6------------|---------------6------------| 
|-------3--------------------|-------3--------------------| 
|---0------------------------|---0------------------------| 
|----------------------------|----------------------------| 
|----------------------------|----------------------------| 

|---------------------|---------------------| 
|-10b11---------------|-(10)p============8--| 
|---------------------|---------------------| 
|---------------------|---------------------| 
|---------------------|---------------------| 
|---------------------|---------------------| 

|----------5-(5)------|---------------------| 
|----------------6----|---------5-(5)-6-----| 
|--------3------------|-------3-------------| 
|--0------------------|---0-----------------| 
|---------------------|---------------------| 
|---------------------|---------------------| 

|--------------------|-------------------| 
|-(8)----------------|-------------------| 
|--------10p=9-------|-(9)---------------| 
|--------------------|-------------------| 
|--------------------|-------------------| 
|--------------------|-------------------| 

|---------0-(0)------|--------0-(0)------| 
|---------------3----|--------------3----| 
|------2-------------|------2------------| 
|--0-----------------|--0----------------| 
|--------------------|-------------------| 
|--------------------|-------------------| 

|-------------------|--------------------------| 
|-------------------|--------------------------| 
|-(9)---------------|-(9)-------------(9)b10---| 
|-------------------|--------------------------| 
|-------------------|--------------------------| 
|-------------------|--------------------------| 

|--------0-(0)------|--------0-(0)-------------| 
|--------------3----|--------------3-----------| 
|------2------------|------2-------------------| 
|--0----------------|--0-----------------------| 
|-------------------|--------------------------| 
|-------------------|--------------------------| 

||-------0-(0)------|------0-(0)------|------0-(0)------|------0-(0)-------| 
||o------------3----|------------3----|------------3----|------------3-----| 
||-----3------------|----3------------|----3------------|----3-------------| 
||--0---------------|-0---------------|-0---------------|-0----------------| 
||o-----------------|-----------------|-----------------|------------------| 
||------------------|-----------------|-----------------|------------------| 

|------0-(0)------|------0-(0)------|------0-(0)------|------0-(0)-------|| 
|------------3----|------------3----|------------3----|------------3----o|| 
|----2------------|----2------------|----2------------|----2-------------|| 
|-0---------------|-0---------------|-0---------------|-0----------------|| 
|-----------------|-----------------|-----------------|-----------------o|| 
|-----------------|-----------------|-----------------|------------------|| 

|------0-(0)------|------0-(0)------|------0-(0)------|------0-(0)------| 
|------------3----|------------3----|------------3----|------------3----| 
|----3------------|----3------------|----3------------|----3------------| 
|-0---------------|-0---------------|-0---------------|-0---------------| 
|-----------------|-----------------|-----------------|-----------------| 
|-----------------|-----------------|-----------------|-----------------| 

|------5-(5)------|------5-(5)------|------5-(5)------|------5-(5)------| 
|------------6----|------------6----|------------6----|------------6----| 
|----5------------|----5------------|----4------------|----4------------| 
|-0---------------|-0---------------|-0---------------|-0---------------| 
|-----------------|-----------------|-----------------|-----------------| 
|-----------------|-----------------|-----------------|-----------------| 

|------5-(5)------|------5-(5)------|------5-(5)------|---------------------| 
|------------6----|------------6----|------------6----|------5-(5)-6--(6)s8-| 
|----3------------|----3------------|----3------------|----3----------------| 
|-0---------------|-0---------------|-0---------------|-0-------------------| 
|-----------------|-----------------|-----------------|---------------------| 
|-----------------|-----------------|-----------------|---------------------| 

|------0-(0)------|------0-(0)------|------0-(0)------|------0-(0)------| 
|------------3----|------------3----|------------3----|------------3----| 
|----2------------|----2------------|----2------------|----2------------| 
|-0---------------|-0---------------|-0---------------|-0---------------| 
|-----------------|-----------------|-----------------|-----------------| 
|-----------------|-----------------|-----------------|-----------------| 

|--------------------|----------------| 
|--------------------|----------------| 
|--------------------|----------------| 
|--------------------|----------------| 
|-3h=5---------------|----------------| 
|-0-(0)-0-0-(0)-0-0--|--0-0--0-0--0-0-| 

||----------------------|-----------------|| 
||o---------------------|----------------o|| 
||----------------------|-----------------|| 
||----------------------|-----------------|| 
||o--3h=5---------------|----------------o|| 
||---0-(0)-0-0-(0)-0-0--|--0-0--0-0--0-0--|| 

||--8--8--8-8-----7-7-7-|---3-3-3---5-----| 
||o---------------------|-----------------| 
||--5--5--5-5--0--4-4-4-|-0-0-0-0-0-2-0-0-| 
||----------------------|-----------------| 
||o---------------------|-----------------| 
||----------------------|-----------------| 

||----------------------|-----------------| 
||o---------------------|-----------------| 
||----------------------|-----------------| 
||----------------------|-----------------| 
||o-3h=5----------------|-----------------| 
||--0-(0)-0-0-(0)-0-0---|-0-0---0-0---0-0-| 

|---------------------|-------------------|| 
|-6-------8-----------|------------------o|| 
|----0--0-------9---9-|---7-7-7-7-7-7-7---|| 
|-3-------5-----------|-------------------|| 
|---------------7---7-|---5-5-5-5-5-5-5--o|| 
|---------------------|-------------------|| 

|---------------------|-------------------|| 
|---------------------|------------------o|| 
|---------------------|-------------------|| 
|---------------------|-------------------|| 
|-3h=5----------------|------------------o|| 
|-0-(0)-0-0-(0)-0-0---|-0-0---0-0---0-0---|| 

||--8-8-8-8---7-7-7-|---3-3-3---5-----|-----------------|-------------------|| 
||o-----------------|-----------------|-6-----8---------|------------------o|| 
||--5-5-5-5-0-4-4-4-|-0-0-0-0-0-2-0-0-|---0-0-----9---9-|---7-7-7-7-7-7-7---|| 
||------------------|-----------------|-3-----5---------|-------------------|| 
||o-----------------|-----------------|-----------7---7-|---5-5-5-5-5-5-5--o|| 
||------------------|-----------------|-----------------|-------------------|| 

||------------------|-----------------|-----------------|-------------------|| 
||o-----------------|-----------------|-----------------|------------------o|| 
||------------------|-----------------|-----------------|-------------------|| 
||--5s7-7-7-7-7-7-7-|-7-7-7-7-7-7-7-7-|-5s7-7-7-7-7-7-7-|-7-7-7-7-7-7-7-7---|| 
||o-3s5-5-5-5-5-5-5-|-5-5-5-5-5-5-5-5-|-3s5-5-5-5-5-5-5-|-5-5-5-5-5-5-5-5--o|| 
||------------------|-----------------|-----------------|-------------------|| 

|-8-8-8-8---7-7-7-|---3-3-3---5-----|-----------------|-----------------| 
|-----------------|-----------------|-6-----8---------|-----------------| 
|-5-5-5-5-0-4-4-4-|-0-0-0-0-0-2-0-0-|---0-0-----9---9-|---7-7-7-7-7-7-7-| 
|-----------------|-----------------|-3-----5---------|-----------------| 
|-----------------|-----------------|-----------7---7-|---5-5-5-5-5-5-5-| 
|-----------------|-----------------|-----------------|-----------------| 

|-----------------|-----------------|-----------------|-----------------| 
|-----------------|-----------------|-----------------|-----------------| 
|-----------------|-----------------|-----------------|-----------------| 
|-5s7-7-7-7-7-7-7-|-7-7-7-7-7-7-7-7-|-5s7-7-7-7-7-7-7-|-----------------| 
|-3s5-5-5-5-5-5-5-|-5-5-5-5-5-5-5-5-|-3s5-5-5-5-5-5-5-|-8-5-5-8-5-5-8-5-| 
|-----------------|-----------------|-----------------|-----------------| 

|----------------|-----------------|-----------------|-------------------| 
|----------------|-----------------|-----------------|-------------------| 
|----------------|-----------------|-----------------|-------------------| 
|-0----0-1p0---0-|---0---0-1-0-1-0-|---0---0-1-0---0-|-----------6-------| 
|-0----0-1p0---0-|---0---0-1-0-1-0-|---0---0-1-0---0-|---------6---6-----| 
|-0----0-1p0---0-|---0---0-1p0-1p0-|---0---0-1p0---0-|---0h6-7-------7-6-| 

||------------------|-----------------|-----------------|--------------------|| 
||o-----------------|-----------------|-----------------|-------------------o|| 
||------------------|-----------------|-----------------|--------------------|| 
||----0---0-1p0---0-|---0---0-1-0-1-0-|---0---0-1-0---0-|-----------6--------|| 
||o---0---0-1p0---0-|---0---0-1-0-1-0-|---0---0-1-0---0-|---------6---6-----o|| 
||----0---0-1p0---0-|---0---0-1p0-1p0-|---0---0-1p0---0-|---0h6-7-------7-6--|| 

|-----------------|------------------|----------------|--------------------| 
|-----------------|------------------|----------------|--------------------| 
|-----------------|------------------|----------------|--------------------| 
|-----5---4-4---5-|---4--------------|-----5---4----5-|---4----------------| 
|-----6---5-5---6-|---5--------------|-----6---5----6-|---5------5-6-5-----| 
|-0-0---0---------|------0-0-0-0-0-0-|-0-0---0--------|------6h7-------6---| 

|----------------|------------------|----------------|-----------------| 
|----------------|------------------|----------------|-----------------| 
|----------------|------------------|----------------|-------------10--| 
|-----5---4----5-|---4--------------|-----5---4------|---7-6-----9-----| 
|-----6---5----6-|---5--------------|-----6---5----0-|-8-----7-8-------| 
|-0-0---0--------|------0-0-0-0-0-0-|-0-0---0--------|-----------------| 

|-------------------------|---------------------------| 
|-------------------------|---------------------------| 
|-14-14-14-14-14-14-14-14-|-14-14-14-15---15-15-15-12-| 
|-------------------------|---------------------------| 
|-12-12-12-12-12-12-12-12-|-12-12-12-13---13-13-13-10-| 
|-------------------------|---------------------------| 

|-------------------------|---------------------------| 
|-------------------------|---------------------------| 
|-------------------------|---------------------------| 
|--------5-----4--------5-|-----4---------------------| 
|--------6-----5--------6-|-----5---------------------| 
|--0--0-----0-------------|-----------0-0--0--0--0--0-| 

|-------------------------|-----------------------------| 
|-------------------------|-----------------------------| 
|-12-14-14-14-14-14-14-14-|-14-14-14-15---15-15-15-12---| 
|-------------------------|-----------------------------| 
|-10-12-12-12-12-12-12-12-|-12-12-12-13---13-13-13-10---| 
|-------------------------|-----------------------------| 

|-------------------------|-----------------------------| 
|-------------------------|-----------------------------| 
|-------------------------|-----------------------------| 
|--------5-----4--4-----5-|-----4-----------------------| 
|--------6-----5--5-----6-|-----5----------5--6--5------| 
|--0--0-----0-------------|-----------6h7-----------6---| 

|-------------------------|---------------------------| 
|-------------------------|---------------------------| 
|-12-14-14-14-14-14-14-14-|-14-14-14-15---15-15-15-12-| 
|-------------------------|---------------------------| 
|-10-12-12-12-12-12-12-12-|-12-12-12-13---13-13-13-10-| 
|-------------------------|---------------------------| 

|-------------------------|---------------------------| 
|-------------------------|---------------------------| 
|-------------------------|---------------------------| 
|--------5-----4--4-----5-|-----4---------------------| 
|--------6-----5--5-----6-|-----5---------------------| 
|--0--0-----0-------------|-----------0-0--0--0--0--0-| 

|-------------------------|-------------------------| 
|-------------------------|-------------------------| 
|-12-14-14-14-14-14-14-14-|-14-14-14-14-14-14-14-14-| 
|-------------------------|-------------------------| 
|-10-12-12-12-12-12-12-12-|-12-12-12-12-12-12-12-12-| 
|-------------------------|-------------------------| 

|-------------------------|-------------------------| 
|-------------------------|-------------------------| 
|-------------------------|-------------------10----| 
|--------5-----4----------|-----7--6--------9-------| 
|--------6-----5--------0-|--8--------7--8----------| 
|--0--0-----0-------------|-------------------------| 

||--8-8-8-8---7-7-7-|---3-3-3---5-----|-----------------|-------------------|| 
||o-----------------|-----------------|-6-----8---------|------------------o|| 
||--5-5-5-5-0-4-4-4-|-0-0-0-0-0-2-0-0-|---0-0-----9---9-|---7-7-7-7-7-7-7---|| 
||------------------|-----------------|-3-----5---------|-------------------|| 
||o-----------------|-----------------|-----------7---7-|---5-5-5-5-5-5-5--o|| 
||------------------|-----------------|-----------------|-------------------|| 

||------------------|-----------------|-----------------|-------------------|| 
||o-----------------|-----------------|-----------------|------------------o|| 
||------------------|-----------------|-----------------|---------5-5-7-7---|| 
||------------------|-----------------|-------5-5-5-6-6-|-6-7-7-7-----------|| 
||o-5-5-5-----------|---------3-3-5-5-|-8-8-8-----------|------------------o|| 
||--------5-5-5-6-6-|-6-7-7-7---------|-----------------|-------------------|| 

|-8-8-8-8---7-7-7-|---3-3-3---5-----|-----------------|-----------------| 
|-----------------|-----------------|-6-----8---------|-----------------| 
|-5-5-5-5-0-4-4-4-|-0-0-0-0-0-2-0-0-|---0-0-----9---9-|---7-7-7-7-7-7-7-| 
|-----------------|-----------------|-3-----5---------|-----------------| 
|-----------------|-----------------|-----------7---7-|---5-5-5-5-5-5-5-| 
|-----------------|-----------------|-----------------|-----------------| 

|-----------------|-----------------|-----------------|-----------------| 
|-----------------|-----------------|-----------------|-----------------| 
|-7-7-7-7-7-7-7-7-|-7-7-7-7-7-6-5---|-7-7-7-6-6-6-5-5-|-5---------------| 
|-----------------|---------------7-|-----------------|---7-7-7-6-5-----| 
|-----------------|-----------------|-----------------|-------------8-5-| 
|-----------------|-----------------|-----------------|-----------------| 

|-8-8-8-8-----7-7-7-|---3-3-3---5-----|-----------------|-----------------| 
|-------------------|-----------------|-6-----8---------|-----------------| 
|-5-5-5-5--0--4-4-4-|-0-0-0-0-0-2-0-0-|---0-0-----9---9-|---7-7-7-7-7-7-7-| 
|-------------------|-----------------|-3-----5---------|-----------------| 
|-------------------|-----------------|-----------7---7-|---5-5-5-5-5-5-5-| 
|-------------------|-----------------|-----------------|-----------------| 

|-------------------|-----------------|-----------------|-----------------| 
|-------------------|-----------------|-----------------|-----------------| 
|-------------------|-----------------|-----------------|---------5-5-7-7-| 
|-------------------|-----------------|-------5-5-5-6-6-|-6-7-7-7---------| 
|-3h5-5-------------|---------3-3-5-5-|-8-8-8-----------|-----------------| 
|-------5-(5)-5-6-6-|-6-7-7-7---------|-----------------|-----------------| 

|-------0-(0)--------|-------0-(0)--------| 
|-------------3------|-------------3------| 
|-----3--------------|-----3--------------| 
|-0------------------|-0------------------| 
|--------------------|--------------------| 
|--------------------|--------------------| 

|--------------------|--------------------| 
|--------------------|--------------------| 
|--------------------|--------------------| 
|--------------------|--------------------| 
|-5-5-5-5--5--5--5-5-|-5-5-5-5--5--5--5-5-| 
|--------------------|--------------------| 

|-------0-(0)--------|-------0-(0)--------| 
|-------------3------|-------------3------| 
|-----2--------------|-----2--------------| 
|-0------------------|-0------------------| 
|--------------------|--------------------| 
|--------------------|--------------------| 

|--------------------|--------------------| 
|--------------------|--------------------| 
|--------------------|--------------------| 
|--------------------|--------------------| 
|-5-5-5-5--5--5--5-5-|-5-5-5-5--5--5--5-5-| 
|--------------------|--------------------| 

|-------0-(0)--------|-------0-(0)--------| 
|-------------3------|-------------3------| 
|-----3--------------|-----3--------------| 
|-0------------------|-0------------------| 
|--------------------|--------------------| 
|--------------------|--------------------| 

|--------------------|--------------------| 
|--------------------|--------------------| 
|--------------------|--------------------| 
|--------------------|--------------------| 
|-5-5-5-5--5--5--5-5-|-5-5-5-5--5--5--5-5-| 
|--------------------|--------------------| 

|-------0-(0)--------|-------0-(0)--------| 
|-------------3------|-------------3------| 
|-----2--------------|-----2--------------| 
|-0------------------|-0------------------| 
|--------------------|--------------------| 
|--------------------|--------------------| 

|--------------------|--------------------| 
|--------------------|--------------------| 
|--------------------|--------------------| 
|--------------------|-3-3-3-3--3--3--3-3-| 
|-5-5-5-5--5--5--5-5-|-5-5-5-5--5--5--5-5-| 
|--------------------|--------------------| 

|-------0-(0)--------|-------0-(0)--------| 
|-------------3------|-------------3------| 
|-----3--------------|-----3--------------| 
|-0------------------|-0------------------| 
|--------------------|--------------------| 
|--------------------|--------------------| 

|--------------------|--------------------| 
|--------------------|--------------------| 
|--------------------|--------------------| 
|-2-2-2-2--2--2--2-2-|-0-0-0-0--0--0--0-0-| 
|-5-5-5-5--5--5--5-5-|-5-5-5-5--5--5--5-5-| 
|--------------------|--------------------| 

|-------0-(0)--------|-------0-(0)--------| 
|-------------3------|-------------3------| 
|-----2--------------|-----2--------------| 
|-0------------------|-0------------------| 
|--------------------|--------------------| 
|--------------------|--------------------| 

|--------------------|--------------------| 
|--------------------|--------------------| 
|--------------------|--------------------| 
|--------------------|--------------------| 
|-5-5-5-5--5--5--5-5-|-5-5-5-5--5--5--5-5-| 
|--------------------|--------------------| 

|-------0-(0)--------|-------0-(0)--------| 
|-------------3------|-------------3------| 
|-----3--------------|-----3--------------| 
|-0------------------|-0------------------| 
|--------------------|--------------------| 
|--------------------|--------------------| 

|--------------------|--------------------| 
|--------------------|--------------------| 
|--------------------|--------------------| 
|--------------------|--------------------| 
|-5-5-5-5--5--5--5-5-|-5-5-5-5--5--5--5-5-| 
|--------------------|--------------------| 

|-------0-(0)--------|-------0-(0)--------| 
|-------------3------|-------------3------| 
|-----2--------------|-----2--------------| 
|-0------------------|-0------------------| 
|--------------------|--------------------| 
|--------------------|--------------------| 

|--------------------|--------------------| 
|--------------------|--------------------| 
|--------------------|--------------------| 
|-6-6-6-6--6--6--6-6-|-7-7-7-7--7--7--7-7-| 
|-5-5-5-5--5--5--5-5-|-5-5-5-5--5--5--5-5-| 
|--------------------|--------------------| 

||--------0-(0)--------|-------0-(0)--------| 
||o-------------3------|-------------3------| 
||------3--------------|-----3--------------| 
||--0------------------|-0------------------| 
||o--------------------|--------------------| 
||---------------------|--------------------| 

||---------------------|--------------------| 
||o--------------------|--------------------| 
||---------------------|--------------------| 
||---------------------|--------------------| 
||o-1-1-1-1--1--1--1-1-|-1-1-1-1--1--1--1-1-| 
||---------------------|--------------------| 

|-------0-(0)--------|-------0-(0)----------|| 
|-------------3------|-------------3-------o|| 
|-----2--------------|-----2----------------|| 
|-0------------------|-0--------------------|| 
|--------------------|---------------------o|| 
|--------------------|----------------------|| 

|--------------------|----------------------|| 
|--------------------|---------------------o|| 
|--------------------|----------------------|| 
|--------------------|----------------------|| 
|-5-5-5-5--5--5--5-5-|-5-5-5-5--5--5--5-5--o|| 
|--------------------|----------------------|| 

|----------|--------------------|----------------------|--------| 
|----------|--------------------|-6-5------------------|--------| 
|----------|------------------7-|-----7----------------|--------| 
|----------|----------------7---|-------7--------------|--------| 
|----------|--------------------|---------8-7-(7)p=5---|--------| 
|----------|--------------------|----------------------|--------| 

|-1--------|-(1)----------------|----------------------|--------| 
|-3--------|-(3)----------------|-6--------------------|-(6)----| 
|-3--------|-(3)----------------|-7--------------------|-(7)----| 
|-0--------|-(0)----------------|-7--------------------|-(7)----| 
|-1--------|-(1)----------------|-5--------------------|-(5)----| 
|----------|--------------------|----------------------|--------| 

|------------------------------------| 
|------------------------------------| 
|--------------------5---7s9h10-9-10s| 
|--------------3s5h7---7-------------| 
|----3s5h7-8-5-----------------------| 
|------------------------------------| 

|-1----------------------------------| 
|-3----------------------------------| 
|-3----------------------------------| 
|-0----------------------------------| 
|-1----------------------------------| 
|------------------------------------| 

|-----------------------------------|----------|--------| 
|-----------------------------------|----------|--------| 
|-12--10-12s14-14-14-10-10-10-(10)p=|=9--------|-(9)----| 
|-----------------------------------|----------|--------| 
|-----------------------------------|----------|--------| 
|-----------------------------------|----------|--------| 

|-(1)-------------------------------|-0--------|-(0)----| 
|-(3)-------------------------------|-6--------|-(6)----| 
|-(3)-------------------------------|-7--------|-(7)----| 
|-(0)-------------------------------|-7--------|-(7)----| 
|-(1)-------------------------------|-5--------|-(5)----| 
|-----------------------------------|----------|--------| 

|-------5-(5)-6--6s8-6-5------------| 
|-----6------------------6----------| 
|---7----------------------7--------| 
|----------------------------8-(8)p=| 
|-----------------------------------| 
|-----------------------------------| 

|-1---------------------------------| 
|-3---------------------------------| 
|-3---------------------------------| 
|-0---------------------------------| 
|-----------------------------------| 
|-----------------------------------| 

|-(0)------(0)--------|---------------|--------| 
|--------------8h10p8-|-7-------------|--------| 
|---------------------|------7-(7)----|-(7)----| 
|--7-------(7)--------|---------------|--------| 
|---------------------|---------------|--------| 
|---------------------|---------------|--------| 

|-(1)-----------------|---------------|--------| 
|-(3)-----------------|---------------|--------| 
|-(3)-----------------|-7-------------|-(7)----| 
|-(0)-----------------|-7-------------|-(7)----| 
|---------------------|-5-------------|-(5)----| 
|---------------------|---------------|--------| 

|---------10-8--------------------------| 
|-------x------8----8-------------------| 
|----10----------10---6s7-(7)b8-(7)-5---| 
|-------------------------------------8-| 
|---------------------------------------| 
|---------------------------------------| 

|-1-------------------------------------| 
|-3-------------------------------------| 
|-3-------------------------------------| 
|---------------------------------------| 
|---------------------------------------| 
|---------------------------------------| 

|------------------|-------------------|--------| 
|------------------|-------------------|--------| 
|---------------14-|-(14)-\9--(9)------|-(9)----| 
|-(8)----(8)-------|-------------------|--------| 
|---------------12-|-(12)-\7--(7)------|-(7)----| 
|------------------|-------------------|--------| 

|-(1)--------------|---5---------------|--5-----| 
|-(3)--------------|-------------------|--------| 
|-(3)--------------|---5---------------|--4-----| 
|------------------|---3---------------|--3-----| 
|------------------|---5---------------|--5-----| 
|------------------|-------------------|--------| 

|------------------------------------| 
|----------5-6-(6)-------------------| 
|--------x---------7h9-6h7-----------| 
|------x-------------------7h8-5h7-3h| 
|------------------------------------| 
|------------------------------------| 

|-5----------------------------------| 
|------------------------------------| 
|-3----------------------------------| 
|-3----------------------------------| 
|-5----------------------------------| 
|------------------------------------| 

|------------------------------------------------| 
|------------------------------------------------| 
|-----------------------------6-(6)--(6)-(6)b7===| 
|--5--2h3p0-(0)----------------------------------| 
|---------------5p4p0-(0)-4h5--------------------| 
|------------------------------------------------| 

|-(5)--------------------------------------------| 
|------------------------------------------------| 
|-(3)--------------------------------------------| 
|-(3)--------------------------------------------| 
|-(5)--------------------------------------------| 
|------------------------------------------------| 

|------------|--------------| 
|------------|--------------| 
|-(6)--------|-(6)r---------| 
|------------|--------------| 
|------------|--------------| 
|------------|--------------| 

|------------|--------------| 
|------------|--------------| 
|--7---------|-(7)----------| 
|--7---------|-(7)----------| 
|--5---------|-(5)----------| 
|------------|--------------| 

||-------0-(0)------|------0-(0)------|------0-(0)------|------0-(0)-------| 
||o------------3----|------------3----|------------3----|------------3-----| 
||-----3------------|----3------------|----3------------|----3-------------| 
||--0---------------|-0---------------|-0---------------|-0----------------| 
||o-----------------|-----------------|-----------------|------------------| 
||------------------|-----------------|-----------------|------------------| 

|------0-(0)------|------0-(0)------|------0-(0)------|------0-(0)-------|| 
|------------3----|------------3----|------------3----|------------3----o|| 
|----2------------|----2------------|----2------------|----2-------------|| 
|-0---------------|-0---------------|-0---------------|-0----------------|| 
|-----------------|-----------------|-----------------|-----------------o|| 
|-----------------|-----------------|-----------------|------------------|| 

|------0-(0)------|------0-(0)------|------0-(0)------|------0-(0)------| 
|------------3----|------------3----|------------3----|------------3----| 
|----3------------|----3------------|----3------------|----3------------| 
|-0---------------|-0---------------|-0---------------|-0---------------| 
|-----------------|-----------------|-----------------|-----------------| 
|-----------------|-----------------|-----------------|-----------------| 

|------5-(5)------|------5-(5)------|------5-(5)------|------5-(5)------| 
|------------6----|------------6----|------------6----|------------6----| 
|----5------------|----5------------|----4------------|----4------------| 
|-0---------------|-0---------------|-0---------------|-0---------------| 
|-----------------|-----------------|-----------------|-----------------| 
|-----------------|-----------------|-----------------|-----------------| 

|------5-(5)------|------5-(5)------|------5-(5)------|---------------------| 
|------------6----|------------6----|------------6----|------5-(5)-6-(6)s8s=| 
|----3------------|-----------------|-----------------|---------------------| 
	  

Search Paypal
auto scroll beats size up size down change color hide chords drawings
tab show chords e-chords YouTube Clip e-chords hide all tabs e-chords go to top tab