Os Barões

Tudo Tem Um Fim

Os Barões

tabs

by  LINEKERS

save to print version add songbook text version e-mail correct tuner
chordsukulelecavacokeyboardtabbassdrumsharmonicaflute Guitar Pro
close

there isn't a video lesson for this song

chords

Tudo Tem Um Fim

	  		Esta parte repete-se até ao refrão: 

e------------------------------------------------------------| 
B------------------------------------------------------------| 
G------------------------------------------------------------| 
D------------------------------------------------------------| 
A----6-6-6-8--6-6-6-8--6-6-6-6--6-6-6-8--6-6-6-8--6-6-6-6----| 
E----6-6-6-6--6-6-6-6--6-6-6-6--6-6-6-6--6-6-6-6--6-6-6-6----| 

Refrão: 

e---------------------------------------------------------------------------------------------------------| 
B---------------------------------------------------------------------------------------------------------| 
G---------------------------------------------------------------------------------------------------------| 
D-------------------------------------6-6-6-6-6-6-6-6-6-6-6-6-6-6-6-6--8-8-8-8-8-8-8-8-8-8-8-8-8-8-8-8----| 
A----8-8-8-8-8-8-8-8-8-8-8-8-8-8-8-8--4-4-4-4-4-4-4-4-4-4-4-4-4-4-4-4--6-6-6-6-6-6-6-6-6-6-6-6-6-6-6-6----| 
E----6-6-6-6-6-6-6-6-6-6-6-6-6-6-6-6----------------------------------------------------------------------| 
                   'Mas tudo tem um fim'            'Não paro p'ra pensar'           'No que querem de mim' 

e--------------------------------------------------------------------------| 
B--------------------------------------------------------------------------| 
G--------------------------------------------------------------------------|  Esta parte é igual 
D--------------------------------------------------------------------------| 
A----6-6-6-6-6-6-6-6-7-7-7-7-7-7-7-7----8-8-8-8-8-8-8-8-8-8-8-8-8-8-8-8----| 
E----4-4-4-4-4-4-4-4-5-5-5-5-5-5-5-5----6-6-6-6-6-6-6-6-6-6-6-6-6-6-6-6----| 
                     'Já estou farto... de aguentar' 


3ª parte (Palm Mute): 

e------------------------------------------------------------------------| 
B------------------------------------------------------------------------| 
G------------------------------------------------------------------------| Esta parte repete-se até ao solo 
D----6-6-6-6-6-6-6-6-6-6-6-6-6-6-6-6--8-8-8-8-8-8-8-8-8-8-8-8-8-8-8-8----| 
A----4-4-4-4-4-4-4-4-4-4-4-4-4-4-4-4--6-6-6-6-6-6-6-6-6-6-6-6-6-6-6-6----| 
E------------------------------------------------------------------------| 
                   'Tudo tem um fim' 

Solo: 

e---------------------------------------------------------------------------------------------| 
B-8b10-10-10-10--10-10-10-10--10-10-10-10--10-10-10-10--6-6-6-6--6-6-6-6--6-6-6-6--6-6-6-6----| 
G-8b10-10-10-10--10-10-10-10--10-10-10-10--10-10-10-10--6-6-6-6--6-6-6-6--6-6-6-6--6-6-6-6----| 
D---------------------------------------------------------------------------------------------| 
A---------------------------------------------------------------------------------------------| 
E---------------------------------------------------------------------------------------------| 

e---------------------------------------------------------------------------------------------| 
B-9b11-11-11-11--11-11-11-11--11-11-11-11--11-11-11-11----------------------------------------| 
G-9b11-11-11-11--11-11-11-11--11-11-11-11--11-11-11-11----------------------------------------| 
D-------------------------------------------------------6-6-6-6--6-6-6-6--7-7-7-7--7-7-7-7----| 
A---------------------------------------------------------------------------------------------| 
E---------------------------------------------------------------------------------------------| 
		  

See also:

tabs Vixen - Love Made Me tabs Jose Gonzales - Heartbeats tabs Hinos Avulsos Ccb - Seguro Estou.. (em Menor) Solo/tab tabs Vixen - How Much Love tabs Ely Guerra - Tengo Frio Solo tabs Pimentas do Reino - Don Juan
e-chords

Other versions:

tabs Os Barões - Tudo Tem Um Fim
auto scroll beats size up size down change color hide chords drawings
tab show chords e-chords YouTube Clip e-chords hide all tabs e-chords go to top tab

share