Nofx

home > Nofx

Liza and Louise Tab

Nofx

Difficulty: nolevelnolevel

tuner correct add songbook print version text version save to e-mail
chordsukulelecavacokeyboardtabbassdrummharmonicsflute Guitar Pro
chords

Liza and Louise

  		 intro - guitar 1

|-8^--8-12-10-8------------------------------------------------------
|---------------6-8-9-10----------11-12^-12--14-14-13-13-14-14-13-13-
|------------------------10-11-12------------------------------------
|--------------------------------------------------------------------
|--------------------------------------------------------------------
|--------------------------------------------------------------------

 ---------------------------------------------------------|
 -14-14-13-13--10h12-10h12--------------------------------|
 --------------------------11h13-11h13-9h11-9h11----------|
 -------------------------------------------------9h11p9--|
 ---------------------------------------------------------|
 ---------------------------------------------------------|

guitar 2

|-----------------------------------------------------------------------|
|-----------------------------------------------------------------------|
|-----------------6-----------------6-7-7-7-7-7-7-7-7---9-9-9-9-9-9-9-9-|
|-7-7-7-7-7-7-7-7-6-4-4-4-4-4-4-4-4-6-7-7-7-7-7-7-7-7-9-9-9-9-9-9-9-9-9-|
|-7-7-7-7-7-7-7-7-4-4-4-4-4-4-4-4-4-4-5-5-5-5-5-5-5-5-9-7-7-7-7-7-7-7-7-|
|-5-5-5-5-5-5-5-5---2-2-2-2-2-2-2-2-------------------7-----------------|

verse - (remember, this means pm> |__|

    |_______________|      |_______________|      |_______________|
|-------------------------------------------------------------------
|-------------------------------------------------------------------
|---------------------6----------------------6--7--7-7-7-7-7-7-7-7--
|-7--7-7-7-7-7-7-7-7--6--4--4-4-4-4-4-4-4-4--6--7--7-7-7-7-7-7-7-7--
|-7--7-7-7-7-7-7-7-7--4--4--4-4-4-4-4-4-4-4--4--5--5-5-5-5-5-5-5-5--
|-5--5-5-5-5-5-5-5-5-----2--2-2-2-2-2-2-2-2-------------------------

       |_______________|
 -----------------------|
 -----------------------|
 ----9--9-9-9-9-9-9-9-9-|
 -9--9--9-9-9-9-9-9-9-9-|
 -9--7--7-7-7-7-7-7-7-7-|
 -7---------------------|

post verse

|-------------------------------------------------------------------------
|-------------------------------------------------------------------------
|---------------------------------------------------------4-4-4-4-4-4-4-4-
|-7-7-7-7-7-7-7-7-7-7-7-7-7-7-7-7--6--4--4-4-4-4-4-4-4-4--4-4-4-4-4-4-4-4-
|-7-7-7-7-7-7-7-7-7-7-7-7-7-7-7-7--6--4--4-4-4-4-4-4-4-4--2-2-2-2-2-2-2-2-
|-5-5-5-5-5-5-5-5-5-5-5-5-5-5-5-5--4--2--2-2-2-2-2-2-2-2------------------

 ----------------------------------|
 ----------------------------------|
 -9-9-9-9-9-9-9-9--6-6-6-6-6-6-6-6-|
 -9-9-9-9-9-9-9-9--6-6-6-6-6-6-6-6-|
 -7-7-7-7-7-7-7-7--4-4-4-4-4-4-4-4-|
 ----------------------------------|

chorus

    |_______|   |_______|   |_______|   |_______|
|-----------------------------------------------------------------
|-----------------------------------------------------------------
|-------------6--6-6-6-6--7--7-7-7-7--------------4-4-4-4-4-4-4-4-
|-7--7-7-7-7--6--6-6-6-6--7--7-7-7-7--4--4-4-4-4--4-4-4-4-4-4-4-4-
|-7--7-7-7-7--4--4-4-4-4--5--5-5-5-5--4--4-4-4-4--2-2-2-2-2-2-2-2-
|-5--5-5-5-5--------------------------2--2-2-2-2------------------

 -----------------|
 -----------------|
 -7-7-7-7-9-9-9-9-|
 -7-7-7-7-9-9-9-9-|
 -5-5-5-5-7-7-7-7-|
 -----------------|

outro

|-5-5-5-5-5-5-5-5-5-5-5-5-5-5-5-5---7^--5--|
|------------------------------------------|
|------------------------------------------|
|------------------------------------------|
|------------------------------------------|
|------------------------------------------|

Letra da musica:

liza's had enough of men, she says she won't get burned again
she says they don't know how to fuck, her last boyfriend the shmuck
shared with her a nice disease, kept her passive, on her knees
'til one day she took his car, and drove it to the city
liza had put down a few, when she met this girl named lou
who convinced her to go home with her, she said "my name's louise
now would you take your clothes off please? 
i want to take you to the moon and back, so get on your back"
with the flick of the tongue, she made her scream, she made her laugh
she made her dance, she was happy for the first time
and you know she wanted more
now with her legs spread wider, she needed to have louise inside her
she said "i'll never forget the first time you kissed me, 
now i want you to fist me"  louise didn't need a second invitation
she knew just what to do, she knew just what to do
liza had cum a few times before, but she had never even seen the door
into the world of pleasures of the flesh, she felt just like sixteen
and her life before now was a dream, or even a nightmare thats over and done
just like warm healing rays, shining from the sun
	  

Search Paypal
auto scroll beats size up size down change color hide chords drawings
tab show chords e-chords YouTube Clip e-chords hide all tabs e-chords go to top tab