Green Day

Brain Stew

Green Day

tabs Beginner beginner

by  META11EIR0

save to print version add songbook text version e-mail correct tuner
chordsukulelecavacokeyboardtabbassdrumsharmonicaflute Guitar Pro
close

there isn't a video lesson for this song

chords

Brain Stew

Year: 1995 - Album: Insomniac

	  		Green day 
Brain Stew 
 
Distorcao: Heavy (Se vc tem um pedal para distorcao) 
 
Legenda 
{ ~ } - Segure a nota até a próxima 
{ / } - Slide 
{ b } - Bend 
 
e|------------------------| 
B|------------------------| 
G|------------------------| 
D|-7-7--5-5--4-4--3-3-2-2-| X 11 
A|-7-7--5-5--4-4--3-3-2-2-| 
E|-5-5--3-3--2-2--1-1-0-0-| 
 
e|--------------------------| 
B|--------------------------| 
G|--------------------------| 
D|-7-7--5-5--4-4--3-3~-2-2~-| X 1 
A|-7-7--5-5--4-4--3-3~-2-2~-| 
E|-5-5--3-3--2-2--1-1~-0-0~-| 
 
e|--------------------------------------| 
B|--------------------------------------| 
G|--------------------------------------| 
D|-7-7xxxxxx5-5xxxxxx4-4xxxxxx3-3xx2-2xx| X 2 
A|-7-7xxxxxx5-5xxxxxx4-4xxxxxx3-3xx2-2xx| 
E|-5-5xxxxxx3-3xxxxxx2-2xxxxxx1-1xx0-0xx| 
 
e|------------------------| 
B|------------------------| 
G|------------------------| 
D|-7-7--5-5--4-4--3-3-2-2-| X 3 
A|-7-7--5-5--4-4--3-3-2-2-| 
E|-5-5--3-3--2-2--1-1-0-0-| 
 
e|--------------------------| 
B|--------------------------| 
G|--------------------------| 
D|-7-7--5-5--4-4--3-3~-2-2~-| X 1 
A|-7-7--5-5--4-4--3-3~-2-2~-| 
E|-5-5--3-3--2-2--1-1~-0-0~-| 
 
e|--------------------------------------| 
B|--------------------------------------| 
G|--------------------------------------| 
D|-7-7xxxxxx5-5xxxxxx4-4xxxxxx3-3xx2-2xx| X 2 
A|-7-7xxxxxx5-5xxxxxx4-4xxxxxx3-3xx2-2xx| 
E|-5-5xxxxxx3-3xxxxxx2-2xxxxxx1-1xx0-0xx| 
 
e|----xxx-xx---xxx-xx---xxx-xx---xx---xx| 
B|----xxx-xx---xxx-xx---xxx-xx---xx---xx| 
G|----xxx-xx---xxx-xx---xxx-xx---xx---xx| 
D|-7-7------5-5------4-4------3-3--2-2--| X 3 
A|-7-7------5-5------4-4------3-3--2-2--| 
E|-5-5------3-3------2-2------1-1--0-0--| 
 
e|----xxx-xx---xxx-xx------------------| 
B|----xxx-xx---xxx-xx------------------| 
G|----xxx-xx---xxx-xx------------------| 
D|-7-7------5-5------4-4/12b-3-3~-2-2~-| X 1 
A|-7-7------5-5------4-4/12b-3-3~-2-2~-| 
E|-5-5------3-3------2-2/10b-1-1~-0-0~-| 
 
e|-----------------------------------------| 
B|-----------------------------------------| 
G|-----------------------------------------| 
D|-7-7~--7---5-5~--5---4-4~--4---3-3~-2-2~-| X 6 
A|-7-7~7---7-5-5~5---5-4-4~4---4-3-3~-2-2~-| 
E|-5-5~------3-3~------2-2~------1-1~-0-0~-| 
 
e|------| 
B|------| 
G|------| 
D|-7-7~-| 
A|-7-7~-| 
E|-5-7~-| 
 

		  

See also:

tabs Bad Religion - Infected tabs Green Day - Minority tabs Green Day - Boulevard of Broken Dreams tabs Blink 182 - Stay Together For The Kids (ver. 4) tabs Matchbook Romance - Monsters tabs Blink 182 - Stay together for the kids (ver. 2)
e-chords

Other versions:

tabs Green Day - Brain Stew tabs Green Day - Brain Stew (ver. 2) tabs Green Day - Brain stew (ver. 2) tabs Green Day - Brain stew bridge chords
auto scroll beats size up size down change color hide chords drawings
tab show chords e-chords YouTube Clip e-chords hide all tabs e-chords go to top tab

share