Nofx

home > Nofx

Leaving jesusland Tab

Nofx

Difficulty: nolevelnolevel

by europeu

tuner correct add songbook print version text version save to e-mail
chordsukulelecavacokeyboardtabbassdrumsharmonicsflute Guitar Pro
chords

Leaving jesusland

  		Tuning:Standard low to high: E-A-D-G-B-E 
 
A tab in standard tuning...best song on Wolves In Wolves' Clothing! 
 
Intro/Main Riff 
e|---------------------------------------------------------------------------| 
B|---------------------------------------------------------------------------| 
G|---------------------------------------------------------------------------| 
D|---------------------------------------------------------------------------| 
A|77777777-33333333-5555-2222-22-33------------------------------------------| 
E|55555555-11111111-3333-0000-44-55------------------------------------------| 
pm........ ........ .... .... .. .. 
 
Pre-Verse 
e|---------| 
B|---#-*---| 
G|-10-2---*| 
D|-10-2-10-| 
A|-8--0-10-| 
E|------8--| 
 
Verse 
e|----------------------| 
B|-----------*--------*-| 
G|---------10--------3--| 
D|7-77-101010-5-55-333--| 
A|7-77-10108--5-55-331--| 
E|5-55-8-8----3-33-11---| 
 
Post Verse 
e|---------------------------------------------------------------------------| 
B|---------------------------------------------------------------------------| 
G|9999999----------------5~--------------------------------------------------| 
D|999999977777777333333335---------------------------------------------------| 
A|777777777777777333333333---------------------------------------------------| 
E|-------5555555511111111----------------------------------------------------| 
 
Main Riff X2 
 
Interlude (im just gonna give you the rhythm chords becuse i couldnt figure out the lead) 
e|---------------------------| 
B|---------------------------| 
G|17---16---14---12---14---16| 
D|---------------------------| 
A|15---14---12---10---12---14| 
E|---------------------------| 
 
| *  Play  8x 
| #  Play 16x 
| /  slide up 
| \  slide down 
| h  hammer-on 
| p  pull-off 
| ~  vibrato 
| +  harmonic 
| x  Mute note 
 

	  

Search Paypal
auto scroll beats size up size down change color hide chords drawings
tab show chords e-chords YouTube Clip e-chords hide all tabs e-chords go to top tab