Nofx

home > Nofx

I'm A Huge Fan Of Bad Religion Tab

Nofx

Difficulty: nolevelnolevel

by tercmoraes

tuner correct add songbook print version text version save to e-mail
chordsukulelecavacokeyboardtabbassdrumsharmonicsflute Guitar Pro
chords

I'm A Huge Fan Of Bad Religion

  		I'm a Huge Fan of Bad Religion 
NOFX 
jjjddd 

EADGBe 

the start leads in from the previous song, fungus 

e|----------------------------| 
B|----------------------------| 
G|----------------------------| 
D|----------/1212121212121212-| 
A|-55555555-/1010101010101010-| 
E|-33333333-------------------| 


im a huge fan of bad religion  
i even bought a brown fender precision 
e|---------------------------------------------------| 
B|---------------------------------------------------| 
G|---------------------------------------------------| 
D|--------10---107---7-------------------------5---5-| 
A|--7---7-8----8-5---5-7---7-7---7-3---3-5---5-3---3-| 
E|--5---5--------------5---5-5---5-1---1-3---3-------| 


signing to atlantic was a really bad decision 
now theyre back on epitaph, hay 
e|---------------------------------------------------| 
B|---------------------------------------------------| 
G|---------------------------------------------------| 
D|-------5555---------------------99999999-99999999--| 
A|--3333-3333-5555-7777-3333-5555-77777777-77777777--| 
E|--1111------3333-5555-1111-3333--------------------| 


i bought suffer then i bought a thesaurus 
then graffin sang on s&m airlines Chorus  
e|---------------------------------------------------| 
B|---------------------------------------------------| 
G|---------------------------------------------------| 
D|--------10---107---7-------------------------5---5-| 
A|--7---7-8----8-5---5-7---7-7---7-3---3-5---5-3---3-| 
E|--5---5--------------5---5-5---5-1---1-3---3-------| 


now we hang out and party on each others tourbus 
cause the old bands know how to have fun 
e|-------------------------------------------------------------------| 
B|-------------------------------------------------------------------| 
G|-------------------------------------------------------------------| 
D|-------5555---------------------1414141414141414-1414141414141414--| 
A|--3333-3333-5555-7777-3333-5555-1212121212121212-1212121212121212--| 
E|--1111------3333-5555-1111-3333------------------------------------| 


aaaahhhhh 
e|------------------------------------------| 
B|------------------------------------------| 
G|------------------------------------------| 
D|-------5555-------------------------------| 
A|--3333-3333-5555-7777-3333-5555-77777777--| 
E|--1111------3333-5555-1111-3333-55555555--| 

aaaahhhhhh 
e|---------------------------------------------------| 
B|---------------------------------------------------| 
G|---------------------------------------------------| 
D|---------------------------------------------------| 
A|--3333-5555-7777-3333-3333-5555-7~~~---------------| 
E|--1111-3333-5555-1111-1111-3333-5~~~---------------| 

i am really awful at solo parts and i could only get the first bit, sorry 
if youre any good at solos im sure its easy as hell 

lead part 1 
e|-------------------| 
B|-------------------| 
G|-9b-9b-9b-7-5h7----| 
D|----------------7--| 
A|-------------------| 
E|-------------------| 
	  

Search Paypal
auto scroll beats size up size down change color hide chords drawings
tab show chords e-chords YouTube Clip e-chords hide all tabs e-chords go to top tab