Naxxerian

Afraid

Naxxerian

tabs

by  ABELAMIN

save to print version add songbook text version e-mail correct tuner
chordsukulelecavacokeyboardtabbassdrumsharmonicaflute Guitar Pro
close

there isn't a video lesson for this song

chords

Afraid

Key:  D More
Afraid Key AA
Afraid Key A#A#
Afraid Key BB
Afraid Key CC(one step down)
Afraid Key C#C#(half step down)
Afraid Key DD(original key)
Afraid Key D#D#(half step up)
Afraid Key EE(one step up)
Afraid Key FF
Afraid Key F#F#
Afraid Key GG
Afraid Key G#G#
	  		This song is in Drop D Half Step Down, Enjoy :) 

Main Riff: 

-------------------------------------------------------------| 
-------------------------------------------------------------| 
-------------------------------------------------------------| 
-------------------------------------------------------------| X2 
-0--/7~--0--0-0--/8~--0--0-0--/10~--0--0-0--/8~--7-8-10-8-7~-| 
-0--/7~--0--0-0--/8~--0--0-0--/10~--0--0-0--/8~--7-8-10-8-7~-| 
                                                 pm...... 


Verse Riff: 

----------------------------------------------| 
----------------------------------------------| 
----------------------------------------------| 
----------------------------------------------| 
-0-0-0-0-0--0-0-0-0-0--0-0-0-0-0--0-0-0-0-3-3-| 
-0-0-0-0-0--0-0-0-0-0--0-0-0-0-0--0-0-0-0-3-3-| 
pm.......................................             X4 

----------------------------------------------| 
----------------------------------------------| 
----------------------------------------------| 
----------------------------------------------| 
-0-0-0-0-0--0-0-0-0-0--0-0-0-0-0--0-0-0-0-8-8-| 
-0-0-0-0-0--0-0-0-0-0--0-0-0-0-0--0-0-0-0-8-8-| 

Then Play The Main Riff 2 times. 

Chorus: 

-----------------------------------------------------| 
-----------------------------------------------------| 
-----------------------------------------------------| 
-----------------------------------------------------| X2 
-0----7----0----8----5-5-5-5-5-5-5-5-7-7-7-7-7-7-7-7-| 
-0----7----0----8----5-5-5-5-5-5-5-5-7-7-7-7-7-7-7-7-| 

Main Riff: X2 
Verse Riff: X4 
Main Riff: X2 
Chorus: X4 

Breakdown: 

------------------------------------------------------------| 
------------------------------------------------------------| 
------------------------------------------------------------| 
------------------------------------------------------------| X4 
-0-0-0-0-0--0-0-0--0-0-2/3-3----0-0-0-0-0--0-0-0--0-0-7/8-8-| 
-0-0-0-0-0--0-0-0--0-0-2/3-3----0-0-0-0-0--0-0-0--0-0-7/8-8-| 
pm....................          pm.................. 

Background Guitar For Solo: 

------------------------------------------------------| 
------------------------------------------------------| 
------------------------------------------------------| 
------------------------------------------------------| X4 
-0----0-0--0----0-0-2/3-3----0----0-0--0----0-0-7/8-8-| 
-0----0-0--0----0-0-2/3-3----0----0-0--0----0-0-7/8-8-| 

Main Riff: X2 
Chorus: X4 
Main Riff: X2 
Main Riff With Double Bass Drumming: X2 

END 
		  

Full key step upFull key step up
Half key step upHalf key step up
Half key step downHalf key step down
Full key step downFull key step down
hide glossary

See also:

tabs Deep Purple - Demonds Eye tabs Deep Purple - Money Talks tabs Ira! - Eu Quero Sempre Mais (Com Pitty, intro) tabs Albert Hammond Jr - Holiday tabs Deep Purple - Smoke on the water (intro) tabs Deep Purple - Smoke on the Water (ver. 2)
e-chords

Other versions:

tabs Motley Crue - Afraid tabs Nelly Furtado - Afraid tabs Naxxerian - Afraid tabs The Neighbourhood - Afraid tabs Wavves - Afraid Of Heights tabs Iron Maiden - Afraid to Shoot Strangers
auto scroll beats size up size down change color hide chords drawings
tab show chords e-chords YouTube Clip e-chords hide all tabs e-chords go to top tab

share