The Neighbourhood

home > The Neighbourhood

Afraid Tab

The Neighbourhood

Difficulty: nolevelnolevel

by PAULLET3

tuner correct add songbook print version text version save to e-mail
chordsukulelecavacokeyboardtabbassdrumsharmonicsflute Guitar Pro
chords

Afraid

Key:  C More
Afraid Key GG
Afraid Key G#G#
Afraid Key AA
Afraid Key A#A#(one step down)
Afraid Key BB(half step down)
Afraid Key CC(original key)
Afraid Key C#C#(half step up)
Afraid Key DD(one step up)
Afraid Key D#D#
Afraid Key EE
Afraid Key FF
Afraid Key F#F#
  		

Tuning:DGCFAD    *ADD SOME REVERB* 
Ill try my best to tab both guitars: Jeremy's intro the 11b is a bit distorted(Start the  
16 on the high D when Jesse says "Make  that money" 
D|---------16---------------19\16-----------| 
A|---------------------16---------------16--| 
F|------------------------------------------| 
C|------------------------------------------| 
G|-11b--------------------------------------| 
D|------------------------------------------| 
 Here is  Zachs intro start when Jesse says "When" 
D|--------------------------------------------------------------------------------------------------| 
A|--------------------------------------------------------------------------------------------------| 
F|--------------------------------------------------------------------------------------------------| 
C|--------14----------14----------14----------14-----------13----------13----------13----------13---| 
G|-----14----14----14----14----14----14----14----14-----13----13----13----13----13----13----13----13| 
D|--12----------12----------12----------12-----------11---------11-----------11----------11---------| 

you can play that up there until Jesse says "When i wake up im afraid" which is down  
here (pick each    note as it moves along) 
D|------19-19-19-19-19-19-19-19-18-18-18-18-19-19-19-19--------------------------| 
A|-------------------------------------------------------------------------------| 
F|-------------------------------------------------------------------------------| 
C|-------------------------------------------------------------------------------| 
G|-------------------------------------------------------------------------------| 
D|-------------------------------------------------------------------------------| 

D|-------------------------------------------------------------------------------------------| 
A|-------------------------------------------------------------------------------------------| 
F|-------------------------------------------------------------------------------------------| 
C|-18-18-18-18-18-18-18-18-14-14-14-14-14-14-14-14-13-13-13-13-13-13-16-16-16-16-18-18-18-18-| 
G|-------------------------------------------------------------------------------------------| 
D|-------------------------------------------------------------------------------------------| 

"Somebody else might end up being me" 
D|---------------------------------------------------------------------------| 
A|---------------------------------------------------------------------------| 
F|---------------------------------------------------------------------------| 
C|------------------------------------21---18---16---18---14---13------------| 
G|---------------------------------------------------------------------------| 
D|---------------------------------------------------------------------------| 
 "Well being me can only mean being scared to breathe X3 
D|-----------9-----------7---------------------4--| 
A|-----------9-----------7---------------------4--| 
F|-----------10----------8---------------------5--| 
C|-----------11----------9---------------------6--| 
G|-----------11----------9---------------------6--| 
D|-----------9-----------7---------------------4--| 
Lets me sleep and when I wake up  Let me be   *Alt picking* 
D|------0---------------------2----------20-21-21-21-21-21-21-21-21------------| 
A|------0---------------------2------------------------------------------------| 
F|------1---------------------3------------------------------------------------| 
C|------2---------------------4------------------------------------------------| 
G|------2---------------------4------------------------------------------------| 
D|------x---------------------2------------------------------------------------| 
   When i wake up im afraid somebody else might take my place 
D|-19-19-19-19-19-19-19-19-18-18-18-18-19-19-19-19---------------------------| 
A|---------------------------------------------------------------------------| 
F|---------------------------------------------------------------------------| 
C|---------------------------------------------------------------------------| 
G|---------------------------------------------------------------------------| 
D|---------------------------------------------------------------------------| 

Play this 3X THE ENDING OUTRO 
D|--------------------------------------------------------------------------------------------| 
A|--------------------------------------------------------------------------------------------| 
F|--------------------------------------------------------------------------------------------| 
C|--18-18-18-18-18-18-18-18-14-14-14-14-14-14-14-14-13-13-13-13-13-13-16-16-16-16-18-18-18----| 
G|--------------------------------------------------------------------------------------------| 
D|--------------------------------------------------------------------------------------------| 


D|---------------------------------------------------------------------------| 
A|---------------------------------------------------------------------------| 
F|---------------------------------------------------------------------------| 
C|------21---18---16---18---14---13------------------------------------------| 
G|---------------------------------------------------------------------------| 
D|---------------------------------------------------------------------------| 


So that is it I did this by ear from a few live versions and the album 
This is my first tab so feedback would be helpful enjoy =) 
Oh and turn up you reverb up all the way 

************************************ 

| /   slide up 
| \   slide down 
| h   hammer-on 
| p   pull-off 
| ~   vibrato 
| +   harmonic 
| x   Mute note 
| b   Bend 
| pb  Pre-bend 
| br  Bend release 
| pbr Pre-bend release 
| brb Bend release bend 

************************************ 
	  

Full key step upFull key step up
Half key step upHalf key step up
Half key step downHalf key step down
Full key step downFull key step down
Search Paypal
auto scroll beats size up size down change color hide chords drawings
tab show chords e-chords YouTube Clip e-chords hide all tabs e-chords go to top tab