Wavves

Afraid Of Heights

Wavves

tabs

by  SABRJOAO

save to print version add songbook text version e-mail correct tuner
chordsukulelecavacokeyboardtabbassdrumsharmonicaflute Guitar Pro
close

there isn't a video lesson for this song

chords

Afraid Of Heights

	  		
                      INTRO 
e|---------------------------------------------------------------------------| 
B|---------------------------------------------------------------------------| 
G|---------------------------------------------------------------------------| 
D|7-7-------7-7--------------------------------------------------------------| 
A|5-5-8-8-8-5-5-8-8-8--------------------------------------------------------| 
E|----6-6-6-----6-6-6--------------------------------------------------------| 

                                 verse 1 
                       
e|---------------------------------------------------------------------------| 
B|---------------------------------------------------------------------------| 
G|---------------------------------------------------------------------------| 
D|--3------3----7---8---3------3----7---8------------------------------------| 
A|-3------3----7---8---3------3----7---8-------------------------------------| 
E|1------1----5---6---1------1----5---6--------------------------------------| 
   
                verse 2 JUST DO THIS UNTIL YOU GET TO THE Chorus 
       
e|---------------------------------------------------------------------------| 
B|---------------------------------------------------------------------------| 
G|---------------------------------------------------------------------------| 
D|---------------------------------------------------------------------------| 
A|8-7-8-7-8-7-8-7-8-7-8-7-8-7-8-7-8------------------------------------------| 
E|---------------------------------------------------------------------------| 
   
                                Chorus 

e|---------------------------------------------------------------------------| 
B|---------------------------------------------------------------------------| 
G|----------7-7-7------------------------------------------------------------| 
D|3-3-7-7-7-7-7-7-8-8-8-3-3-3-2-2-2-7-7-7-8-8-8------------------------------| 
A|3-3-7-7-7-5-5-5-8-8-8-3-3-3-2-2-2-7-7-7-8-8-8------------------------------| 
E|1-1-5-5-5-------6-6-6-1-1-1-0-0-0-5-5-5-6-6-6------------------------------| 
  
                              AFTER Chorus 

e|---------------------------------------------------------------------------| 
B|---------------------------------------------------------------------------| 
G|------7-7-7----------------------------------------------------------------| 
D|3-3-3-7-7-7-8-8-8--------------------------------------------------- ------| 
A|3-3-3-5-5-5-8-8-8----------------------------------------------------------| 
E|1-1-1-------6-6-6----------------------------------------------------------| 
    
                                   SOLO 

e|---------------------------------------------------------------------------| 
B|---------------------------------------------------------------------------| 
G|10-9-10-9-10-7-7-9-7-9-7-5-9-7-9-7-9-5-5-7-2-------------------------------| 
D|---------------------------------------------------------------------------| 
A|---------------------------------------------------------------------------| 
E|---------------------------------------------------------------------------| 
 
		  

See also:

tabs Green Day - She tabs Blink 182 - Anthem Part II tabs Blink 182 - What's My Age Again? tabs 30 Seconds To Mars - The Kill tabs Green Day - Boulevard Of Broken Dreams (ver. 2) tabs Blink 182 - I miss you (solo)
e-chords

Other versions:

tabs Wavves - Afraid Of Heights
auto scroll beats size up size down change color hide chords drawings
tab show chords e-chords YouTube Clip e-chords hide all tabs e-chords go to top tab

share