Mudley

Mentiras

Mudley

tabs

by  MUDLEY

save to print version add songbook text version e-mail correct tuner
chordsukulelecavacokeyboardtabbassdrumsharmonicaflute Guitar Pro
close

there isn't a video lesson for this song

chords

Mentiras

	  		Mudley - Mentiras 
 
Eu s quero a verdade... 
Guitarra do Thom 
E------------------------------------------------------------------ 
B------------------------------------------------------------------ 
G-------5-4---55-77-101099--------5-4---55-77-99-77---------------- 
D-----------5-------------------------5---------------------------- 
A-5/777-------33-55-88--77--5/777-------33-55-77-55---------------- 
E-3/555---------------------3/555---------------------------------- 
 
Guitarra do Cebo 
E------------------------------------------------------------------ 
B------------------------------------------------------------------ 
G-------9-999------------------------------------------------------ 
D-----------------5------------------------------------------------ 
A-5/777-------3-3-3-5---------------------------------------------- 
E-3/555-------1-1---3---------------------------------------------- 
 
Apenas iludem e fazem aceitar... 
Guitarra do Thom 
E------------------------------------------------------------------ 
B------------------------------------------------------------------ 
G-1010/12-7777/107777-14141212------------------------------------- 
D------------------------------------------------------------------ 
A-8888/10-9999/8-5555-12121010------------------------------------- 
E------------------------------------------------------------------ 
 
Guitarra do Cebo 
E------------------------------------------------------------------ 
B------------------------------------------------------------------ 
G------------------------------------------------------------------ 
D---------5-5-5-5-------------------------------------------------- 
A-3-3-3-3-3-3-3-3-5-5-5-5-5-5-5-5---------------------------------- 
E-1-1-1-1---------3-3-3-3-3-3-3-3---------------------------------- 
 
Sabes o que tanto espero ouvir... 
Guitarra do Thom 
E-----------------------|------------------------------------------ 
B-----------------------|------------------------------------------ 
G------------5555-------|-------5-5-7-7---------------------------- 
D------------3333-------|--4x-------------------------------------- 
A-5/777-3333------5555--|-------3-3-5-5---------------------------- 
E-3/555-1111------3333--|------------------------------------------ 
 
Guitarra do Cebo 
E-------------------|---------------------------------------------- 
B-------------------|---------------------------------------------- 
G--9-9-9-9-7-7-5-5--|---------------------------------------------- 
D-------------------|--4x------------------------------------------ 
A--7-7-7-7-5-5-3-3--|-----3-3-5-5---------------------------------- 
E-------------------|-----1-1-3-3---------------------------------- 
 
Parte: 
As duas guitarras iguais 
E------------------------------------------------------------------ 
B------------------------------------------------------------------ 
G------------------------------------------------------------------ 
D------------------------------------------------------------------ 
A-5/777-5/777-5/777-5/777-3-3-3-3-5-5-5-5-------------------------- 
E-3/555-3/555-3/555-3/555-1-1-1-1-3-3-3-3-------------------------- 
 
Quem sou eu pra julgar... 
guitarra do Thom 
E------------------------------------------------------------------ 
B------------------------------------------------------------------ 
G--------------------555-121212------------------------------------ 
D------------------------------------------------------------------ 
A-------------5/7777-333-101010------------------------------------ 
E-------------3/5555----------------------------------------------- 
 
Guitarra do Cebo 
E------------------------------------------------------------------ 
B------------------------------------------------------------------ 
G------------------------------------------------------------------ 
D--------------------------5-5-5-5--------------------------------- 
A--5/7777----------3-3-3-3-3-3-3-3--------------------------------- 
E--3/5555----------1-1-1-1----------------------------------------- 
 
Se nem ao menos sou em quem pode te perdoar... 
Guitarra do Thom 
E----------------------------|------------------------------------- 
B----------------------------|------------------------------------- 
G-7/999-7/999-5555-12121212--|-------5555-7777--------------------- 
D----------------------------|-4x---------------------------------- 
A-5/777-5/777-3333-10101010--|-------3333-5555--------------------- 
E----------------------------|------------------------------------- 
 
Guitarra do Cebo 
E-----------------------------|------------------------------------ 
B-----------------------------|------------------------------------ 
G-----------------------------|------------------------------------ 
D---------------------5-5-5-5-|-4x--------------------------------- 
A-5/777-5/777-3-3-3-3-3-3-3-3-|----------333333-555555------------- 
E-3/555-3/555-1-1-1-1---------|----------111111-333333------------- 
 
Final 
Guitarra do Thom 
E------------------------------------------------------------------ 
B------------------------------------------------------------------ 
G-17-16-14~~------------------------------------------------------- 
D------------------------------------------------------------------ 
A-15-14-12~~------------------------------------------------------- 
E------------------------------------------------------------------ 
 
Guitarra do Cebo 
E------------------------------------------------------------------ 
B------------------------------------------------------------------ 
G------------------------------------------------------------------ 
D-5-4-2~~---------------------------------------------------------- 
A-3-2-0~~---------------------------------------------------------- 
E------------------------------------------------------------------ 
 
 
 

		  

See also:

tabs Matanza - As melhores putas do alabama tabs Forfun - O mundo vai girar tabs CPM 22 - 60 Segundos tabs Garage Fuzz - Embedded Needs tabs CPM 22 - Amigos Perdidos tabs Tequila Baby - Negue
e-chords

Other versions:

tabs Mudley - Mentiras tabs Tits - Mentiras tabs Nx Zero - Mentiras e fracassos
auto scroll beats size up size down change color hide chords drawings
tab show chords e-chords YouTube Clip e-chords hide all tabs e-chords go to top tab

share