Blind Pigs

Conformismo e Resistência

Blind Pigs

tabs Expert expert

save to print version add songbook text version e-mail correct tuner
chordsukulelecavacokeyboardtabbassdrumsharmonicaflute Guitar Pro
close

there isn't a video lesson for this song

chords

Conformismo e Resistência

	  		Cifrado por: «Påulø, Fish» qualquer dúvida ou sugetão [email protected]

 Introdução e estrofe
 A C# B D (várias vezes)

 Ponte
 D D E E A A A A
 D D E E E E E E E E

 Refrão
 A A C# D D
 A A C# D D
 A A C# D D
 E E E E (2x)

 No refrão, a passagem do C# pro D é bem rápida. Os 
 dois últimos refrãos da música é a mesma coisa, só que em B.

 Base do solo
 A A D D B B E E E

 Solo

 e|-17-14-----------------------------------|-17-17-17-14------------------------------------|
 B|-------17-15-17-15-----------------------|-------------17-15-17-15------------------------|
 G|-------------------16-14-b16-16-14-16-14-|--------------------------16-14-b16-16-14-16-14-|
 D|-----------------------------------------|------------------------------------------------|
 A|-----------------------------------------|------------------------------------------------|
 E|-----------------------------------------|------------------------------------------------|

 e|------------------------------------------------------------------------------------------|
 B|-17/15----------------------------------------------17/19-17-15-17-17/19-17-15-17-15-14-12|
 G|---------16---16/14161416141614161416141614---16-14---------------------------------------|
 D|------------------------------------------------------------------------------------------|
 A|------------------------------------------------------------------------------------------|
 E|------------------------------------------------------------------------------------------|

 e|----------------------------------------------------------|
 B|-14-15-17-15-14-12---14-15-17-15-14-12--14-15-19-17-17-17-|
 G|----------------------------------------------------------|
 D|----------------------------------------------------------|
 A|----------------------------------------------------------|
 E|----------------------------------------------------------|

 
guitarrista da banda POtåTø Nøsë 
[email protected]
icq#:136741903
		  

Full key step upFull key step up
Half key step upHalf key step up
Half key step downHalf key step down
Full key step downFull key step down
hide glossary

See also:

tabs Nx Zero - Finja Entender tabs Tequila Baby - Negue tabs CPM 22 - Irreversível (ver. 2) tabs Tequila Baby - Melhor do Que Você Pensa tabs CPM 22 - Reflexões tabs CPM 22 - Um Minuto Para o Fim do Mundo (Intro)
e-chords

Other versions:

tabs Blind Pigs - Conformismo e Resistência
auto scroll beats size up size down change color hide chords drawings
tab show chords e-chords YouTube Clip e-chords hide all tabs e-chords go to top tab

share