Nx Zero

home > Nx Zero

Tarde demais Tab

Nx Zero

Difficulty: BeginnerBeginner

by chernobyl

tuner correct add songbook print version text version save to e-mail
chordsukulelecavacokeyboardtabbassdrumsharmonicsflute Guitar Pro
chords

Tarde demais

Year: 2005 - Album: Diálogo?

	  Intro: 
Riff 1 
e|-------------------------------------- 
B|-------------------------------------- 
G|-------4----------4-----------------4-  2X 
D|----2----------1---------1-2---1-2---- 
A|--0---------2----------4-----4-------- 
E|-------------------------------------- 
 
Segunda Parte da Intro: 
 
Faça os acordes da introdução abafados 
Atenção: naum eh outro solo agora são acordes: 
 
No primeiro acorde eh dedo 4 na corda G e dedo 1 
na corda D. 
 
No segundo acorde eh dedo 4 na corda G dedo 1 na 
corda D e dedo 2 na corda A 
 
E no terceiro eh dedo 4 na corda G dedo 1 na corda 
D e dedo 3 na corda A 
 
Riff 2 
e|----------------------------------------- 
B|----------------------------------------- 
G|-x-x-x-x-4--x-x-4--x-x-x-x-4--x-x-x-x-4--   
D|-x-x-x-x-2--x-x-1--x-x-x-x-2--x-x-x-x-2--  2X 
A|-x-x-x-x-0--x-x-2--x-x-x-x-4--x-x-x-x-0-- 
E|-x-x-x-x-x--x-x-x--x-x-x-x-x--x-x-x-x---- 
 
Pegue a batida nesta parte: 
Riff 3 
e|---------------------- 
B|---------------------- 
G|-4---6---8---10---8---  2X  
D|-x---x---x---x----x--- 
A|-2---4---6---8----6--- 
E|---------------------- 
 
Antes de começar toque 
 
 
G|----4---4--- 
D|--2---1----- 
 
Riff 2 
 
As vezes perco a noção do tempo, 
o mundo gira e eu não vejo tanta diferença 
As horas passam pra mim, pra vc e nada muda 
me olho no espelho e não consigo me entender. 
 
Riff 2 tbm, preste atenção na batida da musik 
 
Meu pulso cortado se esquece da dor, 
q eh bem mais fraca q dor, 
da qual me faz a falta, do seu amor!! 
Oq passou, passou e não vai mas voltar, 
E já não há nada q vc possa falar!! 
 
Riff 2 agora naum eh abafado eh batida paulera nos  
acordes 
 
Não, parece q foi tudo em vão! 
Sei q dessa vez não fui eu q errei!!!! 
Não, parece q foi tudo em vão! 
Sei q dessa vez não fui eu q errei!!!! 
 
Riff 3 
 
Por mais q eu tente relevar e esquecer os erros 
Os sonhos sempre acabam sendo os msmos pesadelos! 
Do q adianta vc vir dizendo q se importa, 
se tudo oq vivemos ficou apenas na memória! 
 
Riff 2 Abafando 
 
Tarde demais! 
 
Riff 2 Batida 
(Ahhh)Mais tempo pra recomeçar, 
Não adianta correr atrás! 
Vc diz q quer uma nova chance, 
agora eh tarde demais!! 
 
Riff 2 bem devagar e fraquinho 
 
Oq passou, passou e não vai mas voltar, 
E já não há nada q vc possa falar!! 
 
Riff 2 paulera nos acordes 
 
Não, parece q foi tudo em vão! 
Sei q dessa vez não fui eu q errei!!!! 
Não, parece q foi tudo em vão! 
Sei q dessa vez não fui eu q errei!!!! 
 

	  

there isn't a video lesson for this song

request
Search Paypal
auto scroll beats size up size down change color hide chords drawings
tab show chords e-chords YouTube Clip e-chords hide all tabs e-chords go to top tab