Mudley

Coisas Inexplicáveis

Mudley

tabs

by  MUDLEY

save to print version add songbook text version e-mail correct tuner
chordsukulelecavacokeyboardtabbassdrumsharmonicaflute Guitar Pro
close

there isn't a video lesson for this song

chords

Coisas Inexplicáveis

	  		Coisas Inexplicáveis 
 
Intro: 
Guitarra do Thom 
E-----------------------|------------------------------------------------- 
B-----------------------|------------------------------------------------- 
G------------10---12----|------------10---9------------------------------- 
D--10---12--------------|--10---12---------------------------------------- 
A--0----0----8----10----|--0----0----8----10------------------------------ 
E-----------------------|------------------------------------------------- 
 
E------------------------------------------------------------------------- 
B------------------------------------------------------------------------- 
G--------------------------7-7-7-7-5-5-5-5-4-4-4-4------------------------ 
D--101010109-9-9-9-10101010------------------------7-7-7-7-5-5-5-5-------- 
A--8-8-8-8-8-8-8-8-7-7-7-7-7-7-7-7-5-5-5-5-5-5-5-5-3-3-3-3-3-3-3-3-------- 
E------------------------------------------------------------------------- 
 
Guitarra do Cebo 
E----------------------------------|-------------------------------------- 
B----------------------------------|-------------------------------------- 
G----------------------------------|-------------------------------------- 
D----------------------------------|--2x---------------------------------- 
A--7-7-7-7-7-7-7-7-3-3-3-3-5-5-5-5-|-------------------------------------- 
E--5-5-5-5-5-5-5-5-1-1-1-1-3-3-3-3-|-------------------------------------- 
 
E------------------------------------------------------------------------- 
B------------------------------------------------------------------------- 
G------------------9-9-101012-12-14-14------------------------------------ 
D--------------------------------------7-7-7-7-7-7-7-7-5-5-5-5-5-5-5-5---- 
A--3-3-3-3-2-2-2-2-7-7-8-8-10-10-12-12-5-5-5-5-5-5-5-5-3-3-3-3-3-3-3-3---- 
E--1-1-1-1-1-1-1-1-------------------------------------------------------- 
 
Foi tão triste percerber... 
Guitarra do Thom 
E----------------------------------------------------------|-------------- 
B----------------------------------------------------------|-------------- 
G----------------------------------------------------------|-------------- 
D--2-222-5-555-7-777-9-999-10101012121212-121212-10101010--|-----2x------- 
A--0-000-2-222-3-333-5-555-7-777-8-888-10-101010-8-8-7-7---|-------------- 
E----------------------------------------------------------|-------------- 
 
Guitarra do Cebo 
E------------------------------------------------------------------------- 
B------------------------------------------------------------------------- 
G-------------------1010101012-12-12-12----------------------------------- 
D------------------------------------------------------------------------- 
A--7-7-7-7-10101010-8-8-8-8-10-10-10-10----------------------------------- 
E--5-5-5-5-8-8-8-8-------------------------------------------------------- 
 
E------------------------------------------------------------------------- 
B------------------------------------------------------------------------- 
G--14-14-14-14-14-14-14-14-1010101012-12-12-12---------------------------- 
D------------------------------------------------------------------------- 
A--12-12-12-12-12-12-12-12-8-8-8-8-10-10-10-10---------------------------- 
E------------------------------------------------------------------------- 
 
Difusão de Pensamentos me consomem... 
Guitarra do Thom 
E------------------------------------------------------------------------- 
B------------------------------------------------------------------------- 
G--------14-14-12-12-109--------14-14-12-12-17-16------------------------- 
D--7xx7~------------------7xx7~------------------------------------------- 
A--5xx5~-12-12-10-10-8-7--5xx5~-12-12-10-10-15-14------------------------- 
E------------------------------------------------------------------------- 
 
Guitarra do Cebo 
E------------------------------------------------------------------------- 
B------------------------------------------------------------------------- 
G------------------------------------------------------------------------- 
D--7xx7~-10105-5------7xx7~--10105-5-------------------------------------- 
A--5xx5~-8-8-3-3-5-5--5xx5~--8-8-3-3-5-5-5-5------------------------------ 
E----------------3-3-----------------3-3-3-3------------------------------ 
 
De fugir ou me esconder... 
Guitarra do Thom 
E---------------------------------------------|--------------------------- 
B---------------------------------------------|--------------------------- 
G---------------------------------------------|--------------------------- 
D-10x10x10x10x9-x9-x9-x9-1010101012-12-12-12--|-----2x-------------------- 
A-12x12x12x12x10x10x10x108-8-8-8-10-10-10-10--|--------------------------- 
E---------------------------------------------|--------------------------- 
 
E------------------------------------|------------------------------------ 
B------------------------------------|------------------------------------ 
G------------------------------------|------------------------------------ 
D------------------------------------|---2x------------------------------- 
A--7-7-7-7-5-5-5-5-3-3-3-3-5-5-5-5---|------------------------------------ 
E--5-5-5-5-3-3-3-3-1-1-1-1-3-3-3-3---|------------------------------------ 
 
Te adimiro por enfrentar... 
Guitarra do Thom 
E-------------------------------------------------------------------|----- 
B-------------------------------------------------------------------|----- 
G--------------------------7-7-7-7-5-5-5-5-4-4-4-4------------------|----- 
D--101010109-9-9-9-10101010------------------------7-7-7-7-5-5-5-5--|-2x-- 
A--8-8-8-8-8-8-8-8-7-7-7-7-7-7-7-7-5-5-5-5-5-5-5-5-3-3-3-3-3-3-3-3--|----- 
E-------------------------------------------------------------------|----- 
 
Guitarra do Cebo 
E----------------------------------------------------------------------|-- 
B----------------------------------------------------------------------|-- 
G------------------9-9-101012-12-14-14---------------------------------|-- 
D--------------------------------------7-7-7-7-7-7-7-7-5-5-5-5-5-5-5-5-|2x 
A--3-3-3-3-2-2-2-2-7-7-8-8-10-10-12-12-5-5-5-5-5-5-5-5-3-3-3-3-3-3-3-3-|-- 
E--1-1-1-1-1-1-1-1-----------------------------------------------------|-- 
 
 
 
O restante é só copiar das partes acima 
 
E o Final é: 
E------------------------------------------------------------------------ 
B------------------------------------------------------------------------ 
G------------------------------------------------------------------------ 
D--10--10/10--10/7---7/5---5/10~------------------------------------------ 
A--8---8-/7---7-/5---5/3---3/8~~------------------------------------------- 
E------------------------------------------------------------------------ 

		  

See also:

tabs Matanza - As melhores putas do alabama tabs Forfun - O mundo vai girar tabs CPM 22 - 60 Segundos tabs Garage Fuzz - Embedded Needs tabs CPM 22 - Amigos Perdidos tabs Tequila Baby - Negue
e-chords

Other versions:

tabs Mudley - Coisas Inexplicáveis
auto scroll beats size up size down change color hide chords drawings
tab show chords e-chords YouTube Clip e-chords hide all tabs e-chords go to top tab

share