Motley Crue

Looks That Kill Tab

Motley Crue

Difficulty: IntermediateIntermediate

tuner correct add songbook print version text version save to e-mail
chordsukulelecavacokeyboardtabbassdrumsharmonicsflute Guitar Pro
close

there isn't a video lesson for this song

request
chords

Looks That Kill

Year: 1983 - Album: Carnival of Sins: Live 1 & 2

  		b- bend 
^- use bar 
~- let ring 
\- slide up 
/- slide down 
h- hammer on 
p- pull off 
x- palm mute 
\/- bend down 
 
intro- x4 
----------------------------------- 
----------------------------------- 
------9-----9------7-----7-----7\6- 
------7-----7------5-----5-----5\4- 
--0-0---0-0---0-0----0-0---0-0----- 
----------------------------------- 
 
gtr 2 
play on 2nd time of intro     play on beginning of 4th time of intro 
-------------------------------------22b^-- 
------------------------------------------- 
--2~--------------------------------------- 
--2~--------------------------------------- 
--0~--------------------------------------- 
------------------------------------------- 
 
verse- x7 
----------------------------------- 
----------------------------------- 
------9-----9------7-----7-----7\6- 
------7-----7------5-----5-----5\4- 
--0-0---0-0---0-0----0-0---0-0----- 
----------------------------------- 
 
chorus 
----------------------------------------- 
--6^-\/-\/-\/-\/-\/-\/-\/-\/---6-6---6-6- 
--5^-\/-\/-\/-\/-\/-\/-\/-\/---5-5---5-5- 
--3^-\/-\/-\/-\/-\/-\/-\/-\/---3-3---3-3- 
----------------------------------------- 
----------------------------------------- 
 
----------------------------------------------- 
-----------------------------------6-6-6-6-6-6- 
--------5--5------5--5------5--5---5-5-5-5-5-5- 
--2-----2--3------3--4------4--5---3-3-3-3-3-3- 
----0----------0---------0--------------------- 
----------------------------------------------- 
 
------------------------------------------------- 
-----------------------------------6-6-6-6-6-6/8- 
--------5--5------5--5------5--5---5-5-5-5-5-5/7- 
--2-----2--3------3--4------4--5---3-3-3-3-3-3/5- 
----0----------0---------0----------------------- 
------------------------------------------------- 
 
 shes got looks that kill 
----------------------------------- 
----------------------------------- 
------9-----9------7-----7-----7\6- 
------7-----7------5-----5-----5\4- 
--0-0---0-0---0-0----0-0---0-0----- 
----------------------------------- 
 
  shes got looks that kill 
----------------------------------- 
----------------------------------- 
------9-----9------7-----7-----7\6- 
------7-----7------5-----5-----5\4- 
--0-0---0-0---0-0----0-0---0-0----- 
----------------------------------- 
 
verse- x7 
----------------------------------- 
----------------------------------- 
------9-----9------7-----7-----7\6- 
------7-----7------5-----5-----5\4- 
--0-0---0-0---0-0----0-0---0-0----- 
----------------------------------- 
 
chorus 
----------------------------------------- 
--6^-\/-\/-\/-\/-\/-\/-\/-\/---6-6---6-6- 
--5^-\/-\/-\/-\/-\/-\/-\/-\/---5-5---5-5- 
--3^-\/-\/-\/-\/-\/-\/-\/-\/---3-3---3-3- 
----------------------------------------- 
----------------------------------------- 
 
----------------------------------------------- 
-----------------------------------6-6-6-6-6-6- 
--------5--5------5--5------5--5---5-5-5-5-5-5- 
--2-----2--3------3--4------4--5---3-3-3-3-3-3- 
----0----------0---------0--------------------- 
----------------------------------------------- 
 
------------------------------------------------- 
-----------------------------------6-6-6-6-6-6/8- 
--------5--5------5--5------5--5---5-5-5-5-5-5/7- 
--2-----2--3------3--4------4--5---3-3-3-3-3-3/5- 
----0----------0---------0----------------------- 
------------------------------------------------- 
 
 shes got looks that kill 
----------------------------------- 
----------------------------------- 
------9-----9------7-----7-----7\6- 
------7-----7------5-----5-----5\4- 
--0-0---0-0---0-0----0-0---0-0----- 
----------------------------------- 
 
 shes got looks that kill 
----------------------------------- 
----------------------------------- 
------9-----9------7-----7-----7\6- 
------7-----7------5-----5-----5\4- 
--0-0---0-0---0-0----0-0---0-0----- 
----------------------------------- 
 
bridge 
------------------------------------------------- 
----------x-13p12----------x-10p9----------x-8p7- 
----------x-12-------------x-9-------------x-7--- 
--14--14--x--------12--12--x-------10--10--x----- 
--12--11-----------10--9-----------8---7--------- 
------------------------------------------------- 
 
 shes got looks that kill 
----------------------------------- 
----------------------------------- 
------9-----9------7-----7-----7\6- 
------7-----7------5-----5-----5\4- 
--0-0---0-0---0-0----0-0---0-0----- 
----------------------------------- 
 
------------------- 
------------------- 
------9-----9------ 
------7-----7------ 
--0-0---0-0---0-0-- 
------------------- 
 
solo 
gtr 1 
------------------------------------------------------------------- 
-----------------------6-5-8-5-8b---8p5h8p5h8p5h8p5h8p5h8p5h8p5-8b- 
------------------5-4---------------------------------------------- 
--5-5-5-5-----7-5-------------------------------------------------- 
----------8-7------------------------------------------------------ 
------------------------------------------------------------------- 
 
gtr 2-                                x4                            end with on 4th 
------------------------------------|--------------------------------|--- 
------------------------------------|--------------------------------|-6- 
-------------------7-7-7-7-7-7-7-7--|-----9-----9-----7----7-----7\6-|-5- 
-------------------5-5-5-5-5-5-5-5--|-----7-----7-----5----5-----5\4-|-3- 
--5-5-5-5-5-5-5-5-------------------|-0-0---0-0---0-0---0-0--0-0-----|--- 
--3-3-3-3-3-3-3-3-------------------|--------------------------------|--- 
 
--------------------------------------------------------------------------------- 
--5----5-5----------------------------------------------------------------------- 
----7b-----7b--7p5--7b-7b-5-------------------7b-7b-7b-7-5-----7b--7-7b-7-7b--7b- 
----------------------------7-------------------------------7-------------------- 
-------------------------------5b~~--------5------------------------------------- 
--------------------------------------------------------------------------------- 
 
--5-------------------------------------------------------- 
-----8p5----5---------------------------------------------- 
----------8---8\7--5-7-7-5--------------------------------- 
---------------------------7-5----------------------------- 
--------------------------------7p5\3-5------------0-^-^--- 
-----------------------------------------5-5-5-5----------- 
 
x4 
----------------------------------- 
----------------------------------- 
------9-----9------7-----7-----7\6- 
------7-----7------5-----5-----5\4- 
--0-0---0-0---0-0----0-0---0-0----- 
----------------------------------- 
 
gtr 2- play at beginning of 4th time through after "HEY" 
--22b^- 
------- 
------- 
------- 
------- 
------- 
 
verse- x7 
----------------------------------- 
----------------------------------- 
------9-----9------7-----7-----7\6- 
------7-----7------5-----5-----5\4- 
--0-0---0-0---0-0----0-0---0-0----- 
----------------------------------- 
 
chorus 
----------------------------------------- 
--6^-\/-\/-\/-\/-\/-\/-\/-\/---6-6---6-6- 
--5^-\/-\/-\/-\/-\/-\/-\/-\/---5-5---5-5- 
--3^-\/-\/-\/-\/-\/-\/-\/-\/---3-3---3-3- 
----------------------------------------- 
----------------------------------------- 
 
----------------------------------------------- 
-----------------------------------6-6-6-6-6-6- 
--------5--5------5--5------5--5---5-5-5-5-5-5- 
--2-----2--3------3--4------4--5---3-3-3-3-3-3- 
----0----------0---------0--------------------- 
----------------------------------------------- 
 
------------------------------------------------- 
-----------------------------------6-6-6-6-6-6/8- 
--------5--5------5--5------5--5---5-5-5-5-5-5/7- 
--2-----2--3------3--4------4--5---3-3-3-3-3-3/5- 
----0----------0---------0----------------------- 
------------------------------------------------- 
 
 shes got looks that kill 
----------------------------------- 
----------------------------------- 
------9-----9------7-----7-----7\6- 
------7-----7------5-----5-----5\4- 
--0-0---0-0---0-0----0-0---0-0----- 
----------------------------------- 
 
 shes got looks that kill 
----------------------------------- 
----------------------------------- 
------9-----9------7-----7-----7\6- 
------7-----7------5-----5-----5\4- 
--0-0---0-0---0-0----0-0---0-0----- 
----------------------------------- 
 
bridge 
------------------------------------------------- 
----------x-13p12----------x-10p9----------x-8p7- 
----------x-12-------------x-9-------------x-7--- 
--14--14--x--------12--12--x-------10--10--x----- 
--12--11-----------10--9-----------8---7--------- 
------------------------------------------------- 
 
repeat to fade 
 
 shes got looks that kill 
----------------------------------- 
----------------------------------- 
------9-----9------7-----7-----7\6- 
------7-----7------5-----5-----5\4- 
--0-0---0-0---0-0----0-0---0-0----- 
----------------------------------- 
 
        __ 
      =/ / 
     =/ / 
    =/_/             
     |_\            
     |_|           
     |_|  any questions or correction   
     |_|   email me, [email protected] -Crue 
     |_| 
     |_| 
     |_|       
  /\ |_| 
 / | |_|  _ 
 \  \|_| ( \  
  |     \/ / 
  | {===} |  
 /  {===}/|    
 |   ___/oo\   
 \  |---| o )   
  \________/ 
	  

Search Paypal
auto scroll beats size up size down change color hide chords drawings
tab show chords e-chords YouTube Clip e-chords hide all tabs e-chords go to top tab

share with facebook