Slipknot

home > Slipknot

Duality Tab

Slipknot

Difficulty: BeginnerBeginner

by Belotto

tuner correct add songbook print version text version save to e-mail
chordsukulelecavacokeyboardtabbassdrumsharmonicsflute Guitar Pro
chords

Duality

  		Slipknot 
Duality 
 
E|----------------------------------------------------| 
B|----------------------------------------------------| 
G|----------------------------------------------------| 
D|----------------------------------------------------| 
A|----------------------------------------------------| 
D|---44444444444444400000000000000003322222222222-----| 
     pm.......................................... 
 
E|----------------------------------------------------| 
B|----------------------------------------------------| 
G|----------------------------------------------------| 
D|----------------------------------------------------| 
A|----------------------------------------------------| 
D|---44444444444444400000000000000003322222222222-----| 
 
E|----------------------------------------------------| 
B|----------------------------------------------------| 
G|----------------------------------------------------| 
D|----------------------------------3^^^--------------| 
A|---0-0-0---0-0---0-0-0--0-3-0-4---------------------| 
D|---0-0-0---0-0---0-0-0--0-3-0-4---------------------| 
 
E|-----------------------------------| 
B|-----------------------------------| 
G|-----------------------------------| 
D|-----------------------------------| 
A|-----------------------------------| 
D|---44444777222223222224443330000---| 
  pm ............................. 
 
E|-------------------------------------------| 
B|-------------------------------------------| 
G|-------------------------------------------| 
D|-------------------------------------------| 
A|---22-22--2-22-22--2-22--22--2-11--00------| 
D|---22-22--2-22-22--2-22--22--2-11--00------| 
  pm .. ..    .. ..    ..  ..  . ..  .. 
 
Chorus 
E|----------------------------------------------------| 
B|----------------------------------------------------| 
G|----------------------------------------------------| 
D|----------------------------------------------------| 
A|----------------------------------------------------| 
D|---44444444444444400000000000000003322222222222-----| 
 
During Chorus: 
 
E|-----------------------------| 
B|-----------------------------| 
G|---7--7--7--9-11-11--12-11---| 
D|-----------------------------| 
A|---5--5--5--7--9--9--10--9---| 
D|-----------------------------| 
 
E|-----------------------------------| 
B|-----------------------------------| 
G|-----------------------------------| 
D|-----------------------------------| 
A|-----------------------------------| 
D|---44444777222223222224443330000---| 
  pm ............................. 
 
E|-------------------------------------------| 
B|-------------------------------------------| 
G|-------------------------------------------| 
D|-------------------------------------------| 
A|---22-22--2-22-22--2-22--22--2-11--00------| 
D|---22-22--2-22-22--2-22--22--2-11--00------| 
  pm .. ..    .. ..    ..  ..  . ..  .. 
 
E|----------------------------------------------------| 
B|----------------------------------------------------| 
G|----------------------------------------------------| 
D|----------------------------------------------------| 
A|----------------------------------------------------| 
D|---44444444444444400000000000000003322222222222-----| 
 
       "All I got is insane" 
E|----------------------------------------------------| 
B|----------------------------------------------------| 
G|----------------------------------------------------| 
D|----------------------------------3^^^--------------| 
A|---0-0-0---0-0---0-0-0--0-3-0-4---------------------| 
D|---0-0-0---0-0---0-0-0--0-3-0-4---------------------| 
 
E|----------------------------------------------------| 
B|----------------------------------------------------| 
G|----------------------------------------------------| 
D|----------------------------------------------------| 
A|----------------------------------------------------| 
D|---44444444444444400000000000000003322222222222-----| 
 
E|----------------------------------------------------| 
B|----------------------------------------------------| 
G|----------------------------------------------------| 
D|----------------------------------3^^^--------------| 
A|---0-0-0---0-0---0-0-0--0-3-0-4---------------------| 
D|---0-0-0---0-0---0-0-0--0-3-0-4---------------------| 
	  

Search Paypal
auto scroll beats size up size down change color hide chords drawings
tab show chords e-chords YouTube Clip e-chords hide all tabs e-chords go to top tab