Slipknot

home > Slipknot

My Plague Tab

Slipknot

Difficulty: ExpertExpert

tuner correct add songbook print version text version save to e-mail
chordsukulelecavacokeyboardtabbassdrummharmonicsflute Guitar Pro
chords

My Plague

  		 
Afinção( A E A D F# B )  
 
 
B |--------------------|--------------------|-------------------|----------------  
 F#|--------------------|--------------------|-------------------|----------------  
D |--------------------|--------------------|-------------------|---------------- 
A |--------------------|--------------------|-------------------|---------------- 
E |-00-0-0-------------|00-0-0--------------|00-0-0-------------|00-0-0----------  
A |-00-0-0--1-h2-2p1---|00-0-0--1-h2-2p1----|00-0-0-1-h2-2p1----|00-0-0-1-h2-2p1-  
  
 
--------------------|--------------------|-------------------|---------------- 
--------------------|--------------------|-------------------|---------------- 
--------------------|--------------------|-------------------|---------------- 
--------------------|--------------------|-------------------|---------------- 
-00-0-0-------------|00-0-0--------------|00-0-0-------------|00-0-0----------  
-00-0-0--1-h2-2p1---|00-0-0--1-h2-2p1----|00-0-0--1-h2-2p1---|00-0-0----------  
  
 
--------------------|--------------------|-------------------|---------------- 
--------------------|--------------------|-------------------|---------------- 
--------------------|--------------------|-------------------|---------------- 
--------------------|--------------------|-------------------|---------------- 
-0-0-0--------------|0-0-0---------------|0-0-0--------------|0-0-0-0---------  
-0-0-0-1-h2-2p1-----|0-0-0--1-h2-2p1-----|0-0-0-1-h2-2p1-----|0-0-0-0---------  
 
 
--------------------|--------------------|-------------------|---------------- 
--------------------|--------------------|-------------------|---------------- 
--------------------|--------------------|-------------------|---------------- 
--------------------|--------------------|-------------------|---------------- 
-0-0-0--------------|0-0-0---------------|0-0-0--------------|0-0-0-0--------- 
-0-0-0-1-h2-2p1-----|0-0-0--1-h2-2p1-----|0-0-0-1-h2-2p1-----|0-0-0-0--------- 
  
 
--------------------|--------------------|-------------------|---------------- 
--------------------|--------------------|-------------------|---------------- 
--------------------|--------------------|-------------------|---------------- 
--------------------|--------------------|-------------------|---------------- 
-0-0-0-1-h2-2p1-----|0-0-0-1-h2-2p1------|0-0-0-1-h2-2p1-----|0-0-0-1-h2-2p1-- 
-0-0-0-1-h2-2p1-----|0-0-0-1-h2-2p1------|0-0-0-1-h2-2p1-----|0-0-0-1-h2-2p1-- 
  
 
--------------------|--------------------|-------------------|---------------- 
--------------------|--------------------|-------------------|---------------- 
--------------------|--------------------|-------------------|---------------- 
--------------------|--------------------|-------------------|---------------- 
-0-0-0-1-h2-2p1-----|0-0-0-1-h2-2p1------|0-0-0-1-h2-2p1-----|0-0-0-1-h2-2p1-- 
-0-0-0-1-h2-2p1-----|0-0-0-1-h2-2p1------|0-0-0-1-h2-2p1-----|0-0-0-1-h2-2p1-- 
  
 
------------------------------------------------------------------------------ 
------------------------------------------------------------------------------ 
------------------------------------------------------------------------------ 
------------------------------------------------------------------------------ 
------------------------------------------------------------------------------ 
-17\\\--------------------------------------------------------------------- 
 
--------------------|--------------------|-------------------|---------------- 
--------------------|--------------------|-------------------|---------------- 
--------------------|--------------------|-------------------|---------------- 
--------------------|--------------------|-------------------|---------------- 
-0-0-0-1-h2-2p1-----|0-0-0-1-h2-2p1------|0-0-0-1-h2-2p1-----|0-0-0-1-h2-2p1-- 
-0-0-0-1-h2-2p1-----|0-0-0-1-h2-2p1------|0-0-0-1-h2-2p1-----|0-0-0-1-h2-2p1-- 
  
 
--------------------|--------------------|-------------------|---------------- 
--------------------|--------------------|-------------------|---------------- 
--------------------|--------------------|-------------------|---------------- 
--------------------|--------------------|-------------------|---------------- 
-0-0-0-1-h2-2p1-----|0-0-0-1-h2-2p1------|0-0-0-1-h2-2p1-----|0-0-0-1-h2-2p1-- 
-0-0-0-1-h2-2p1------0-0-0-1-h2-2p1------|0-0-0-1-h2-2p1-----|0-0-0-1-h2-2p1-- 
 
 
--------------------|--------------------|-------------------|---------------- 
--------------------|-8---8--8--8--8-/---|-------------------|---------------- 
--------------------|11b-11b11b11b11b/---|-------------------|---------------- 
----7-10--12--------|--------------------|---7-10--12--------|---------------- 
-0--5--8--10--------|--------------------|0--5--8--10--------|22222222-555555- 
-0------------------|--------------------|0------------------|22222222-555555- 
 
--------------------|--------------------|-------------------|---------------- 
--------------------|-8---8--8--8--8-/---|-------------------|---------------- 
--------------------|11b-11b11b11b11b/---|-------------------|---------------- 
----7-10--12--------|--------------------|---7--10--12-------|---------------- 
-0--5--8--10--------|--------------------|0--5---8--10-------|22222222-555555- 
-0------------------|--------------------|0------------------|22222222-555555- 
 
--------------------|--------------------|-------------------|---------------- 
--------------------|--------------------|-------------------|---------------- 
--------------------|--------------------|-------------------|---------------- 
--------------------|--------------------|-------------------|---------------- 
-00-0-0-------------|00-0-0--------------|-------------------|---------------- 
-00-0-0--1-h2-2p1---|00-0-0--1-h2-2p1----|-------------------|---------------- 
  
 
--------------------|--------------------|-------------------|---------------- 
--------------------|--------------------|-------------------|---------------- 
--------------------|--------------------|-------------------|---------------- 
--------------------|--------------------|-------------------|---------------- 
-0-0-0-1-h2-2p1-----|0-0-0-1-h2-2p1------|0-0-0-1-h2-2p1-----|0-0-0-1-h2-2p1-- 
-0-0-0-1-h2-2p1-----|0-0-0-1-h2-2p1------|0-0-0-1-h2-2p1-----|0-0-0-1-h2-2p1-- 
 
 
--------------------|--------------------|-------------------|---------------- 
--------------------|--------------------|-------------------|---------------- 
--------------------|--------------------|-------------------|---------------- 
--------------------|--------------------|-------------------|---------------- 
-0-0-0-1-h2-2p1-----|0-0-0-1-h2-2p1------|0-0-0-1-h2-2p1-----|0-0-0-1-h2-2p1-- 
-0-0-0-1-h2-2p1-----|0-0-0-1-h2-2p1------|0-0-0-1-h2-2p1-----|0-0-0-1-h2-2p1-- 
 
--------------------|--------------------|-------------------|---------------- 
--------------------|--------------------|-------------------|---------------- 
--------------------|--------------------|-------------------|---------------- 
--------------------|--------------------|-------------------|---------------- 
-22222222-----------|--------------------|-------------------|---------------- 
-22222222-----------|--------------------|-------------------|---------------- 
 
--------------------|--------------------|-------------------|---------------- 
--------------------|--------------------|-------------------|---------------- 
--------------------|-8---8--8--8--8-/---|-------------------|---------------- 
---7-10--12---------|11b-11b11b11b11b/---|--7-10--12---------|---------------- 
-0-5--8--10---------|--------------------|0-5--8--10---------|22222222-555555- 
-0------------------|--------------------|0------------------|22222222-555555- 
 
 
--------------------|--------------------|-------------------|---------------- 
--------------------|--------------------|-------------------|---------------- 
--------------------|-8---8--8--8--8-/---|-------------------|---------------- 
---7-10--12---------|11b-11b11b11b11b/---|--7-10--12---------|---------------- 
-0-5--8--10---------|--------------------|0-5--8--10---------|22222222-55555-- 
-0------------------|--------------------|0------------------|22222222-55555-- 
 
--------------------|--------------------|-------------------|---------------- 
--------------------|--------------------|-------------------|---------------- 
--------------------|--------------------|-------------------|---------------- 
--------------------|--------------------|-------------------|---------------- 
------43----8----98-|-----43----8----98--|-----43---8----98--|----43---8---98- 
-0-32----43---98----|0-32----43---98-----|0-32----43--98-----|032---43---98--- 
  
 
--------------------|--------------------|-------------------|---------------- 
--------------------|--------------------|-------------------|---------------- 
--------------------|--------------------|-------------------|---------------- 
--------------------|--------------------|-------------------|---------------- 
-0-3-2-0--3h4-------|-7h8p7------9p8-----|0-3-2-0--3h4-------|-7h8p7------9p8- 
-0-3-2-0------3h4---|-------12p9---------|0-3-2-0------3h4---|-------12p0----- 
 
--------------------|--------------------|-------------------|---------------- 
--------------------|-8---8--8--8--8-/---|-------------------|---------------- 
--------------------|11b-11b11b11b11b/---|-------------------|---------------- 
---7-10--12---------|--------------------|--7-10--12---------|---------------- 
-0-5--8--10---------|--------------------|0-5--8--10---------|2222222-5555555- 
-0------------------|--------------------|0------------------|2222222-5555555- 
 
--------------------|--------------------|-------------------|---------------- 
--------------------|-8---8--8--8--8-/---|-------------------|---------------- 
--------------------|11b-11b11b11b11b/---|-------------------|---------------- 
---7-10--12---------|--------------------|--7-10--12---------|---------------- 
-0-5--8--10---------|--------------------|0-5--8--10---------|2222222-5555555- 
-0------------------|--------------------|0------------------|2222222-5555555- 
 
--------------------|--------------------|-------------------|---------------- 
--------------------|--------------------|-------------------|---------------- 
---7-10--10--4tp-5tp|--7-10--10--4tp-5tp-|--7-10--10--4tp-5tp|--7-10--10------ 
---x--x---x--x---x--|--x--x---x--x---x---|--x--x---x--x---x--|--x--x---x-4--5- 
-0-5--8-0-8--2tp-3tp|0-5--8-0-8--2tp-3tp-|0-5--8-0-8--2tp-3tp|0-5--8-0-8-x--x- 
-0------------------|0-------------------|0------------------|0----------2--3- 
 
--------------------|--------------------|-------------------|---------------- 
--------------------|--------------------|-------------------|---------------- 
--------------------|--------------------|-------------------|---------------- 
--------------------|--------------------|-------------------|---------------- 
-0-0-0-1-h2-2p1-----|0-0-0-1-h2-2p1------|0-0-0-1-h2-2p1-----|0-0-0-1-h2-2p1-- 
-0-0-0-1-h2-2p1-----|0-0-0-1-h2-2p1------|0-0-0-1-h2-2p1-----|0-0-0-1-h2-2p1-- 
 
--------------------|--------------------|-------------------|---------------- 
--------------------|--------------------|-------------------|---------------- 
--------------------|--------------------|-------------------|---------------- 
--------------------|--------------------|-------------------|---------------- 
------------01-h22p1|0-0-0-0-0--01-h2-2p1|0-0-0-0-0-01-h2-2p1|0-0-0-0-0-01h2p- 
-0-0-0-0-0--01-h22p1|0-0-0-0-0--01-h2-2p1|0-0-0-0-0-01-h2-2p1|0-0-0-0-0-01h2p- 
  
 
--------------------|--------------------|-------------------|---------------- 
--------------------|--------------------|-------------------|---------------- 
--------------------|--------------------|-------------------|---------------- 
--------------------|--------------------|-------------------|---------------- 
--------------------|--------------------|-------------------|---------------- 
-1-h2-2p1-----------|1-h2-2p1------------|1-h2-2p1-----------|1-h2-2p1-------- 
 
_______________________________________________________ 
Contribuição: Alceu Cintra De Oliveira Neto(AlceuKornSoadRageCypress)([email protected]) 

	  

Full key step upFull key step up
Half key step upHalf key step up
Half key step downHalf key step down
Full key step downFull key step down
Search Paypal
auto scroll beats size up size down change color hide chords drawings
tab show chords e-chords YouTube Clip e-chords hide all tabs e-chords go to top tab