Modest Mouse

Whenever I Breathe Out You Breathe In

Modest Mouse

tabs

by  IRONPOWER4EVER

save to print version add songbook text version e-mail correct tuner
chordsukulelecavacokeyboardtabbassdrumsharmonicaflute Guitar Pro
close

there isn't a video lesson for this song

chords

Whenever I Breathe Out You Breathe In

	  		
INTRO-REPEAT 4 TIMES (0:00-0:40) 
e-------------------------------------------------------------------| 
B------------0-0-0-0-0-0-0-0--0-3-3-0-0-----------------------------| 
G------------0-0-0-0-0-0-0-0--0-0-0-0-0-----------------------------| 
D-5----------0-0-0-0-0-0-0-2--2-2-2-0-0-----------------------------| 
A----3p2-----2-2-2-2-2-2-2-2--2-2-2-2-2-----------------------------| 
E--------3---3-3-3-3-3-3-3-3--3-3-3-3-3-----------------------------| 


At the end of the fourth repetition play 
e-----------------------------------------------------------------------| 
B-----------------------------------------------------------------------| 
G-----------------------------------------------------------------------| 
D-5---------------------------------------------------------------------| 
A----3p2----------------------------------------------------------------| 
E?-------3--------------------------------------------------------------| 


PART 2-PLAY THROUGH ONCE (0:41-1:26) 
e-------------------------------------------------------------------| 
B-------------------------------------------------------------------| 
G-------------------------------------------------------------------| 
D---------------------------------5--5/7--5-------------------------| 
A---2---2/----9----9\---4---4--3------------------------------------| 
E-3---3--/-10---10--\-5---5-----------------------------------------| 

e-------------------------------------------------------------------| 
B-------------------------------------------------------------------| 
G-------------------------------------------------------------------| 
D--------------------------------------5--5/7--5--------------------| 
A---2---2/----9----9\---4---7-5-4---3-------------------------------| 
E-3---3--/-10---10--\-5---5-----------------------------------------| 


e-----------------------------------------------------------------------------| 
B-----------------------------------------------------------------------------| 
G-----------------------------------------------------------------------------| 
D-------------------------------------------5--5/7--5-------------------------| 
A---2---2/----9h10-12??10??9------4---4--3------------------------------------| 
E-3---3--/-10-------------------5---5-----------------------------------------| 


e-------------------------------------------------------------------| 
B-------------------------------------------------------------------| 
G-------------------------------------------------------------------| 
D---------------------------------5--5--/7--------------------------| 
A---2---2/----9----9\---4---4--3------------------------------------| 
E-3---3--/-10---10--\-5---5-----------------------------------------| 


e-------------------------------------------------------------------| 
B-------------------------------------------------------------------| 
G-------------------------------------------------------------------| 
D---------------------------------5--5/7--5-------------------------| 
A---2---2/----9----9\---4---4--3------------------------------------| 
E-3---3--/-10---10--\-5---5-----------------------------------------| 


PART 3-REPEAT 4 TIMES (1:27-2:07) 
e-------------------------------------------------------------------| 
B-3---3---3-3-3---10---10---10-10-10---5---5---5-5-5----------------| 
G-0---0---0-0-0---0----0----0--0--0----0---0---0-0-0---5-5-5---7-7-7| 
D-0---0---0-0-0---0----0----0--0--0----0---0---0-0-0---5-5-5---7-7-7| 
A-2---2---2-2-2---9----9----9--9--9----4---4---4-4-4---3-3-3---5-5-5| 
E-3---3---3-3-3---10---10---10-10-10---5---5---5-5-5----------------| 


PART 4-PLAY THROUGH ONCE (2:08-2:45) 
e------------------------------------------------| 
B------------------------------------------------| 
G------------------------------------------------| 
D-9-7-9-7-5-7-5-7-12-10-12-10-9h10-9h10-9--------| 
A----------------------------------------12-10-9-| 
E------------------------------------------------| 


e------------------------------------------------| 
B------------------------------------------------| 
G------------------------------------------------| 
D-9-7-9-7-5-7-5-7------------5-------------------| 
A--------------------3-3-3p2---3-2---------------| 
E------------------------------------------------| 


e------------------------------------------------| 
B------------------------------------------------| 
G-----------------------------12--12-12--12------| 
D-9-7-9-7-5-7-5-7-12-10-12-10---12-----12--12----| 
A------------------------------------------------| 
E------------------------------------------------| 


e------------------------------------------------| 
B------------------------------------------------| 
G------------------------------------------------| 
D-9-7-9-7-5-7-5-7------------------------5-------| 
A------------------3-3-3p2---3-3-3-3-3p2---------| 
E------------------------------------------------| 


PART 5-REPEAT 6 TIMES (2:46-3:32) 
e-------------------------------------------------------------------| 
B-3---3---3-3-3---10---10---10-10-10---5---5---5-5-5----------------| 
G-0---0---0-0-0---0----0----0--0--0----0---0---0-0-0---5-5-5---7-7-7| 
D-0---0---0-0-0---0----0----0--0--0----0---0---0-0-0---5-5-5---7-7-7| 
A-2---2---2-2-2---9----9----9--9--9----4---4---4-4-4---3-3-3---5-5-5| 
E-3---3---3-3-3---10---10---10-10-10---5---5---5-5-5----------------| 

Occasionally at the end of these, you can play 

(+=harmonic) 
e------------------------------------------------| 
B------------------------------------------------| 
G------------------------------------------------| 
D----3+---5+---7+--------------------------------| 
A------------------------------------------------| 
E------------------------------------------------| 


PART 6-PLAY THROUGH ONCE (3:33-4:04) 
e------------------------------------------------| 
B------------------------------------------------| 
G------------------------------------------------| 
D-9-7-9-7-5-7-5-7-12-10-12-10-9h10-9h10-9--------| 
A----------------------------------------12-10-9-| 
E------------------------------------------------| 


e------------------------------------------------| 
B------------------------------------------------| 
G------------------------------------------------| 
D-9-7-9-7-5-7-5-7------------5-------------------| 
A--------------------3-3-3p2---3-2---------------| 
E------------------------------------------------| 


e------------------------------------------------| 
B------------------------------------------------| 
G-----------------------------12--12-12--12------| 
D-9-7-9-7-5-7-5-7-12-10-12-10---12-----12--12----| 
A------------------------------------------------| 
E------------------------------------------------| 


e------------------------------------------------| 
B------------------------------------------------| 
G------------------------------------------------| 
D-9-7-9-7-5-7-5-7------------------------5-------| 
A------------------3-3-3p2---3-3-3-3-3p2---------| 
E------------------------------------------------| 


PART 7-REPEAT 4 TIMES (4:05-4:36) 
e-------------------------------------------------------------------| 
B-3---3---3-3-3---10---10---10-10-10---5---5---5-5-5----------------| 
G-0---0---0-0-0---0----0----0--0--0----0---0---0-0-0---5-5-5---7-7-7| 
D-0---0---0-0-0---0----0----0--0--0----0---0---0-0-0---5-5-5---7-7-7| 
A-2---2---2-2-2---9----9----9--9--9----4---4---4-4-4---3-3-3---5-5-5| 
E-3---3---3-3-3---10---10---10-10-10---5---5---5-5-5----------------| 


PART 8-PLAY THROUGH ONCE (4:37-4:52) 

e-----------------------------------------------------------------------| 
B---3^-3^-3^-3^---10^-10^-10^-10^---5^-5^-5^-5^-------------------------| 
G-------------------------------------------------5^-5^--7^-7^----------| 
D-----------------------------------------------------------------------| 
A-----------------------------------------------------------------------| 
E-----------------------------------------------------------------------| 

(^ = bend up) 

e-----------------------------------------------------------------------| 
B---3^--3^--3^--3^---10-10-10--10-10-10---5^-5^-5^-5^-------------------| 
G--------------------------------------------------------7^--5^--4^-----| 
D-----------------------------------------------------------------------| 
A-----------------------------------------------------------------------| 
E-----------------------------------------------------------------------| 


PART 9-PLAY THROUGH ONCE (4:53-5:22) 
e-------------------------------------------------------------------| 
B-------------------------------------------------------------------| 
G-------------------------------------------------------------------| 
D---------------------------------5--5/7--5-------------------------| 
A---2---2/----9----9\---4---4--3------------------------------------| 
E-3---3--/-10---10--\-5---5-----------------------------------------| 

e-------------------------------------------------------------------| 
B-------------------------------------------------------------------| 
G-------------------------------------------------------------------| 
D--------------------------------------5--5/7--5--------------------| 
A---2---2/----9----9\---4---7-5-4---3-------------------------------| 
E-3---3--/-10---10--\-5---5-----------------------------------------| 


e-----------------------------------------------------------------------------| 
B-----------------------------------------------------------------------------| 
G-----------------------------------------------------------------------------| 
D-------------------------------------------5--5/7--5-------------------------| 
A---2---2/----9h10-12??10??9------4---4--3------------------------------------| 
E-3---3--/-10-------------------5---5-------------------3---------------------| 

And that?s all. Thanks for using my tab and rock on! 
		  

See also:

tabs Simon & Garfunkel - Sounds of silence tabs Guns N' Roses - November Rain tabs Chuck Berry - Johnny B. Goode tabs Foo Fighters - Everlong (acústico) tabs John Mayer - Belief tabs Jimi Hendrix Experience - Voodoo Child
e-chords

Other versions:

tabs Modest Mouse - Whenever I Breathe Out You Breathe In
auto scroll beats size up size down change color hide chords drawings
tab show chords e-chords YouTube Clip e-chords hide all tabs e-chords go to top tab

share