Misc Television

House Of Cards Theme

Misc Television

tabs

by  RENEJUNIOR

save to print version add songbook text version e-mail correct tuner
chordsukulelecavacokeyboardtabbassdrumsharmonicaflute Guitar Pro
close

there isn't a video lesson for this song

chords

House Of Cards Theme

	  		

  00:00 
e|------------------------12--12-12--12----------------| 
B|-----------------------------------------------------| 
G|-----------------------------------------------------| 
D|-----------------------------------------------------| 
A|-----------------------------------------------------| 
E|--3----5-------6----5--------------------------------| 

  Piano Riff 
e|-15-----15-----15-----15------|-14-----14-----14-----14------| 
B|---13-----13-----13-----13----|---13-----13-----13-----13----| 
G|-----14-----14-----14-----14--|-----14-----14-----14-----14--| 
D|------------------------------|------------------------------| 
A|------------------------------|------------------------------| 
E|------------------------------|------------------------------| 

e|-13-----13-----13-----13------|--------------------------------------| 
B|---13-----13-----13-----13----|---------13------13------13------13---| 
G|-----14-----14-----14-----14--|-----------14-14---14-14---14-14---14-| 
D|------------------------------|--------------------------------------| 
A|------------------------------|--------------------------------------| 
E|------------------------------|--------------------------------------| 

  Bass Tones During Above Piano 
e|------------------------------|------------------------------| 
B|------------------------------|------------------------------| 
G|------------------------------|------------------------------| 
D|------------------------------|------------------------------| 
A|------------------------------|------------------3-----------| 
E|-------5---5-5--5-------------|--------5-5-5--5--------------| 

e|------------------------------|------------------------------|  These two 
B|------------------------------|--------------------10------13|< notes are 
G|------------------------------|------------------------------|  trumpet 
D|------------------------------|------------------------------|  entering 
A|------------------------------|------------------------------|  again 
E|----1-------------------------|-------------------------3----|  

  Trumpet (playing over piano riff) 
e|-12------------------------10-|------------------------------| 
B|------------------------------|-------------10--------13-----| 
G|------------------------------|------------------------------| 
D|------------------------------|------------------------------| 
A|------------------------------|------------------------------| 
E|------------------------------|------------------------------| 

e|------------------------------|------------------------------| 
B|------------------------------|------------------------------| 
G|----------NO-NOTES------------|----------NO-NOTES------------| 
D|------------------------------|------------------------------| 
A|------------------------------|------------------------------| 
E|------------------------------|------------------------------| 

  Bass Tones (playing during above trumpet riff) 
e|------------------------------|------------------------------| 
B|------------------------------|------------------------------| 
G|------------------------------|------------------------------| 
D|------------------------------|------------------------------| 
A|------------------------------|------------------------------| 
E|-0----------------------------|--2---------------------------| 

e|------------------------------|------------------------------| 
B|------------------------------|------------------------------| 
G|------------------------------|------------------------------| 
D|------------------------------|------------------------------| 
A|------------------------------|------------------------------| 
E|-1-----------------------(let-|-ring)------------------------| 

  00:29 
  Bass Tones 
e|----------------------------------|---------------------------------| 
B|----------------------------------|--------12--10-12----------------|< Trumpet 
G|----------------------------------|----------------------9--9-------|< Notes 
D|----------------------------------|---------------------------------| 
A|-3------------5-----3--3----------|---------------------------------| 
E|----------------------------------|-5--3--3-------------------------| 

e|--------------------------------------------------| 
B|---------------------10----8--10------------------|< Trumpet 
G|------------------------------------------7-------|< Notes  
D|--------------------------------------------------| 
A|--------------------------------------------------| 
E|-1------------------------------------1------3--5-| 

e|--------------------------------------------------| 
B|--------------------------------------------------| 
G|--------------------------------------------------| 
D|--------------------------------------------------| 
A|--------------------------------------------------| 
E|-5-------------------------1--0--3------1--0--3---| 

  00:58 

  Violin and 
e|-------15----15----15----14----14----------------|-------15----15----15----14----14----------------|< violin 
B|---------13----13----13----13----13--------------|---------13----13----13----13----13--------------|< notes 
G|-----------14----14----14----14----14------------|-----------14----14----14----14----14------------| 
D|---------------------------------------0---------|---------------------------------------0---------|< bass 
A|-3--------------------------0------------------3-|-3---------------------------0-----------------0-|< notes 
E|-------------------------------------------------|-------------------------------------------------| 

e|-----------------------------------------------------------------| 
B|--------(elec-guitar)---------------(elec-guitar)----------------| 
G|-------------9---------------------------9-----------------------| 
D|------------7---------------------------7------------------------| 
A|-----------7---------------------------7-------------------------| 
E|-3----------------------0----1-------------------------3--5--5---| 

  Violin (playing over elec guitar above)            Trumpet (playing over 2nd elec guitar) 
e|-----------------12----12----12----12----12------|-----10---12-13----13---17---17-----| 
B|-------------------12----12----12----12----12----|------------------------------------| 
G|---------------------9-----9-----9-----9-----9---|--10--------------------------------| 
D|-------------------------------------------------|------------------------------------| 
A|-------------------------------------------------|------------------------------------| 
E|-------------------------------------------------|------------------------------------| 

  01:17 
  Violin 
e|------------9----9----9----9---------------|-------9----9----9----10------------------| 
B|--------10---10---10---10---10-------------|---10---10---10---10----10----------------| 
G|----------9----9----9----9----10--10-------|-----9----9----9----10----10--------------| 
D|--------------------------------12---------|----------------------------12------------| 
A|-------------------------------------------|------------------------------------------| 
E|-------------------------------------------|------------------------------------------| 

                                            e|------------------------------------------------------| 
                                   Bass     B|------------------------------------------------------| 
                                   Notes    G|------------------------------------------------------| 
                                   over     D|-----------------0---3------0---3--------3-----5------| 
                                   violin   A|------------------------------------------------------| 
                                            E|------------------------------------------------------| 
		  

See also:

tabs Misc Computer Games - Assassins Creed Black Flag - Randy Dandy O tabs Dirty Heads - Sloths Revenge tabs Misc Television - Gravity Falls Theme tabs Misc Computer Games - Resident Evil 4 - Save Theme tabs Misc Computer Games - Sea Of Thieves - Becalmed Hurdy-gurdy tabs Misc Computer Games - Rogue Legacy - Lamprey
e-chords

Other versions:

tabs Misc Television - House Of Cards Theme
auto scroll beats size up size down change color hide chords drawings
tab show chords e-chords YouTube Clip e-chords hide all tabs e-chords go to top tab

share