Misc Computer Games

Damned Black Ops Zombies Menu Music

Misc Computer Games

tabs

by  PAULLET3

save to print version add songbook text version e-mail correct tuner
chordsukulelecavacokeyboardtabbassdrumsharmonicaflute Guitar Pro
close

there isn't a video lesson for this song

chords

Damned Black Ops Zombies Menu Music

	  		
E|---7-----------7-----------7-------7-----------7-----------7-------| 
B|-------5-----------5-----------5-------5-----------5-----------5---| 
G|-----------4-----------4-------------------4-----------4-----------| 
D|-------------------------------------------------------------------| 
A|-------------------------------------------------------------------| 
E|-------------------------------------------------------------------| 

E|---8-----------8-----------8-------9-----------7-----------7-------| 
B|-------5-----------5-----------5-----------------------------------| 
G|-----------5-----------5---------------8-----------8-----------8---| 
D|-------------------------------------------9-----------9-----------| 
A|-------------------------------------------------------------------| 
E|-------------------------------------------------------------------| 

PLAY THE ABOVE TWICE BEFORE MOVING ON 

E|---6-----------6-----------6-------6-----------6-----------6-------| 
B|-------8-----------8-----------8-------8-----------8-----------8---| 
G|-----------7-----------7-------------------7-----------7-----------| 
D|-------------------------------------------------------------------| 
A|-------------------------------------------------------------------| 
E|-------------------------------------------------------------------| 

E|---7-----------7-----------7-------12----------10----------7-------| 
B|-------8-----------8-----------8-------8-----------8-----------8---| 
G|-----------9-----------9-------------------9-----------9-----------| 
D|-------------------------------------------------------------------| 
A|-------------------------------------------------------------------| 
E|-------------------------------------------------------------------| 

E|---6-----------6-----------6-------6-----------6-----------6-------| 
B|-------8-----------8-----------8-------7-----------7-----------7---| 
G|-----------7-----------7-------------------7-----------7-----------| 
D|-------------------------------------------------------------------| 
A|-------------------------------------------------------------------| 
E|-------------------------------------------------------------------| 

E|---6-----------6-----------6-------| 
B|-------7-----------7-----------7---| 
G|-----------6-----------6-----------| 
D|-----------------------------------| 
A|-----------------------------------| 
E|-----------------------------------| 

OUTRO (PLAY AND SLOWLY FADE OUT): 

E|---9-------------10-------------| 
B|-------11-------------11--------| 
G|------------11-------------10---| 
D|--------------------------------| 
A|--------------------------------| 
E|--------------------------------| 
 
		  

auto scroll beats size up size down change color hide chords drawings
tab show chords e-chords YouTube Clip e-chords hide all tabs e-chords go to top tab

share