Misc Computer Games

The Witcher 3 Ost - Lullaby Of Woe A Night To Remember Song (acoustic)

Misc Computer Games

tabs

by  TAMAMOREIRA

save to print version add songbook text version e-mail correct tuner
chordsukulelecavacokeyboardtabbassdrumsharmonicaflute Guitar Pro
close

there isn't a video lesson for this song

chords

The Witcher 3 Ost - Lullaby Of Woe A Night To Remember Song (acoustic)

	  		
e|---0--0--------------------------------------------------------0--0-------------------------------| 
B|---------0--0----1--3----0---------------------------0----------------0-0-------------------------| 
G|-----------------------------2--0---- 0-----------------------------------------------------------| 
D|-----------------------------------4----4---2---1--1----------------------------------------------| 
A|--------------------------------------------------------------------------------------------------| 
E|---------------------------------------------------------------0----------------------------------| 


e|------------------------------------------------------------0--------------------------------------| 
B|---1---3----0-----------------------------------------------0----0--0----------1---3---0-----------| 
G|------------------2--0----0---------------------------------0-------0-0---------------0--0---------| 
D|------------------------4---4---2---4---2---1---1--2-------------2-----------------2---------------| 
A|---------------------------------------------------------------2-----------------2-----------------| 
E|---------------------------------------------------0--------0------------------0-------------------| 


e|---------------------------------------------------------------------------------------------------| 
B|--------------------------------------------0--------------0---0-------1-----3---0-----------------| 
G|------------0------2----0-----0--------------------------------0-0---------------0---0-------------| 
D|---------2-----2-----------4-----2----1---1----------------2-----------------2---------------------| 
A|------2------------0------------------2-----------------2-----------------2------------------------| 
E|---0--------------------------------------------------0----------------0---------------------------| 


e|-----------------------------------------------------------------------------------0---------------| 
B|------------------------------------------------------------------0------0-----0------4----0-------| 
G|------------0------2----0-----0---------------------------0---2----------0-------------------------| 
D|---------2-----2-----------4-----4---2---4---2---1---2----------------2------------2---------------| 
A|------2------------4----------3----------2--------------------------2------------2-----------------| 
E|---0-------------------------------------------------0------------0------------0-------------------| 


e|-------------------0--------------------------------------------------------------------------------| 
B|---1--------1---------------------------------------------------------------------------------------| 
G|---------0-----2-----------0----2----2----------0---0------------------------------0----------------| 
D|------2-----------------0---------------4--4--------2--2---2----1----2--4--2----2-----2---1---2---4-| 
A|---3-----------------2-------------3--------------2-------------2-------------2-----------2---------| 
E|-------------------3------------2---------------0--------------------------0------------------------| 


e|-----------| 
B|-----------| 
G|-----------| 
D|---2-------| 
A|-----------| 
E|---0-------| 
		  

See also:

tabs Misc Computer Games - Dark Souls 3 - Fireline Shrine tabs Misc Computer Games - Outer Wilds - Riebecks Banjo Theme tabs Idir - A Vava Inouva tabs Misc Computer Games - Undertale - His Theme tabs Misc Computer Games - The Witcher 3 Ost - Lullaby Of Woe A Night To Remember Song (acoustic) tabs Misc Computer Games - Far Cry 5 - Now That This Old World Is Ending
e-chords

Other versions:

tabs Misc Computer Games - The Witcher 3 Ost - Lullaby Of Woe A Night To Remember Song (acoustic)
auto scroll beats size up size down change color hide chords drawings
tab show chords e-chords YouTube Clip e-chords hide all tabs e-chords go to top tab

share