Misc Computer Games

Far Cry 3 - Ukulele Girl

Misc Computer Games

tabs

by  LUCICAMARGO

save to print version add songbook text version e-mail correct tuner
chordsukulelecavacokeyboardtabbassdrumsharmonicaflute Guitar Pro
close

there isn't a video lesson for this song

chords

Far Cry 3 - Ukulele Girl

	  		

-intro- 
ukulele on electric guitar (clean) 
git.1 

e|-13--13--------------|------------------------------------| 
b|---------15--15------|--------13--15--16--16--------------| 
g|-----------------15~-|----15------------------12--12--14~-| 
d|---------------------|-15---------------------------------| 
a|---------------------|------------------------------------| 
e|---------------------|------------------------------------| 

e|-----------------| 
b|-------------13~-| 
g|-----14--15------| 
d|-15--------------| 2x 
a|-----------------| 
e|-----------------| 

git.2 
reggae style 
verse and Chorus 

    Bb   Gm    D#m   F 
e|-13--|-10--|-10--|-13--| 
b|-15--|-11--|-10--|-13--| 
g|-15--|-12--|-12--|-14--| 
d|-15--|-12--|-13--|-15--|  
a|-13--|-10--|-13--|-15--| 
e|-----|-----|-11--|-13--| 


Bridge 
both git.1 and 2 

   D#m    A#m 
e|-10--|-6--| 
b|-10--|-6--| 
g|-12--|-7--| 
d|-13--|-8--| 2x 
a|-13--|-8--| 
e|-11--|-6--| 

   C 
e|-8---|-----------------| 
b|-8---|-----------------| 
g|-8---|-10--8--7--5-----| 
d|-10--|-10--8--7--5-----|  
a|-10--|-8---6--5--3-----| 
e|-8---|-----------------| 

LYRICS: 

She wears an orchid in her long dark hair 
Her little smile tells me she knows I care 
I love to listen when she plays her song 
And she can strum so sweetly all day long 

Chorus: 
Ukulele girl 
You make me smile 
Ukulele girl 
You drive me wild 
Ukulele girl 
You rock my my world 

I saw her sitting on the beach alone 
Playing songs about her Island home 
I moved in closer so that I could hear 
That ukulele ringing in my ear 

Chorus 

I asked her if she'd play a song for me 
I knew a song would set my spirit free 
Could she be an angel sent from up above 
Maybe this is ukulele love 

Chorus x 2 

YOU ROCK MY WORLD! 


ENJOY! 
		  

Full key step upFull key step up
Half key step upHalf key step up
Half key step downHalf key step down
Full key step downFull key step down
hide glossary

See also:

tabs Prototype - The Way It Ends tabs Idir - A Vava Inouva tabs Misc Television - Brooklyn Nine-nine Background Guitar Jakes Proposal tabs Misc Computer Games - Chrono Trigger - Corridors Of Time tabs Misc Television - Family Guy - Iraq Lobster tabs Macano - Te Amo
e-chords

Other versions:

tabs Misc Computer Games - Far Cry 3 - Ukulele Girl
auto scroll beats size up size down change color hide chords drawings
tab show chords e-chords YouTube Clip e-chords hide all tabs e-chords go to top tab

share