Ministério Ipiranga

Almas como Estrelas

Ministério Ipiranga

tabs Easy easy

by  PROFETAA

save to print version add songbook text version e-mail correct tuner
chordsukulelecavacokeyboardtabbassdrumsharmonicaflute Guitar Pro
close

there isn't a video lesson for this song

chords

Almas como Estrelas

	  		esse solinho é akele do começo junto com a bateria(obs: ñ é o da guitarra) 
  
e |-------------------------------------| 
 B|-------------------------------------| 
 G|-------------------------------------| 
 D|---7---9----7---9-----11-11----| 
 A|---9---11---9--11----12--12---| 
 E|--------------------------------------| 

 e |---------------------------------------------| 
 B|----------------------------------------------| 
 G|--------------------------8/-----------9----| 
 D|---7---9----7---9-------11/-----------7--| 
 A|---9---11---9--11-------------------------| 
 E|----------------------------------------------| 

 e |------------------------------------| 
 B|-------------------------------------| 
 G|-------------------------------------| 
 D|---7---9----7---9-----11-11----| 
 A|---9---11---9--11----12--12---| 
 E|--------------------------------------| 

 e |----------------------------------| 
 B|-----------------------------------| 
 G|-----------------------------------| 
 D|---7---9----7--------------------| 
 A|---9---11---9-------------------| 
 E|-----------------------------------| 


		  

See also:

tabs Fernanda Brum - Vem me consolar tabs Kleber Lucas - Deus cuida de mim tabs Diante do Trono - Coração Igual ao Teu tabs PG - Meu Universo tabs Fernandinho - Faz chover tabs Oficina G3 - A Lição (versão detalhada)
e-chords

Other versions:

tabs Ministério Ipiranga - Almas como Estrelas
auto scroll beats size up size down change color hide chords drawings
tab show chords e-chords YouTube Clip e-chords hide all tabs e-chords go to top tab

share