Metal Nobre

Apocalipse (Completa)

Metal Nobre

tabs Expert expert

by  NILLCARVALHO

save to print version add songbook text version e-mail correct tuner
chordsukulelecavacokeyboardtabbassdrumsharmonicaflute Guitar Pro
close

there isn't a video lesson for this song

chords

Apocalipse (Completa)

	  		Transcrito por Nill Carvalho 
Está do jeito que gosto de tocar 
Quem se interessar pelo música em Guitar Pro 5 e só enviar e-mail para [email protected] 
Aceitamos correções claro!! 
um Abraço galera do Cifras. 
 
Apocalipse                                     
 
 
                                                                     Metal Nobre 
Base de Guitarra 
 
 
 
      E  E  E  E  E  E  E  E     E  E  E  E  H          
D#||--------------------------|-----------------------| 
A#||--3--------3--------6-----|--5--------6--L--------| 
F#||--2--------3--------7-----|--5--------7--L--------| 
C#||-----0--0-----0--0-----0--|-----0--0--------------| 
G#||--------------------------|-----------------------| 
D#||--------------------------|-----------------------| 
 
 
                                  ^  PM                   
  E  E  E  E  E  E  E  E     Q    E  E  S  S  E  E   E    
--------------------------|-----------------------------| 
--3--------3-----6-----5--|--L----------5h-6p-5---------| 
--2--------3-----7-----5--|--L-------------------7p--5--| 
-----0--0-----0-----0-----|-------7--7------------------| 
--------------------------|-----------------------------| 
--------------------------|-----------------------------| 
 
 
  E  E  E  E  E  E  E  E     E  E  E  E  H           E  E  E  E  E  E  E  E    
--------------------------|-----------------------|--------------------------| 
--3--------3-----6--------|--5--------6--L--------|--------------------------| 
--2--------3-----7--------|--5--------7--L--------|--------------------------| 
-----0--0-----0-----0--0--|-----0--0--------------|--7--7--L--3--3--L--5--5--| 
--------------------------|-----------------------|--5--5--L--1--1--L--3--3--| 
--------------------------|-----------------------|--------------------------| 
 
 
  E  S S E  S S E  S S E  S S    E  E  E  E  E  E  E  E    
------------------------------|--------------------------| 
------------------------------|--3--------3--------6-----| 
------------------------------|--2--------3--------7-----| 
--L------3----3-5--3---3------|-----0--0-----0--0-----0--| 
--L--3-5----5--------5----5-3-|--------------------------| 
------------------------------|--------------------------| 
 
 
  E  E  E  E  Q    E  E     E  E  E  E  E  E  E  E    
-------------------------|--------------------------| 
--5--------6--L----------|--3--------3-----6-----5--| 
--5--------7--L----------|--2--------3-----7-----5--| 
-----0--0-------------3--|-----0--0-----0-----0-----| 
-------------------3-----|--------------------------| 
-------------------------|--------------------------| 
 
 
       ^  PM                                              
  Q    E  E  S  S  E  E   E     E  E  E  E  E  E  E  E    
-----------------------------|--------------------------| 
--L----------5h-6p-5---------|--3--------3-----6--------| 
--L-------------------7p--5--|--2--------3-----7--------| 
-------7--7------------------|-----0--0-----0-----0--0--| 
-----------------------------|--------------------------| 
-----------------------------|--------------------------| 
 
 
  E  E  E  E  H           E  E  E  E  E  E  E  E     W                  
-----------------------|--------------------------|-------------------| 
--5--------6--L--------|--------------------------|-------------------| 
--5--------7--L--------|--------------------------|-------------------| 
-----0--0--------------|--7--7--L--3--3--L--5--5--|--L----------------| 
-----------------------|--5--5--L--1--1--L--3--3--|--L----------------| 
-----------------------|--------------------------|-------------------| 
 
 
    PM PM PM PM PM PM PM                                                       
    E  E  E  E  E  E  E  E     Q    E  E  H           Q    E  E  E  E  E  E    
|---------------------------|----------------------|-------------------------| 
|---------------------------|----------------------|-------------------------| 
|*--------------------------|--5-------5--L--------|----------------------5--| 
|*--7-----------------7-----|--5-------5--L--------|--7----7--------7-----5--| 
|---5--5--5--5--5--5--5-----|--5-------------------|--5----5--------5-----3--| 
|---------------------------|----------------------|-------------------------| 
 
 
                              PM PM PM PM PM PM PM                             
  Q    E  E  E  E  E  E   3x  E  E  E  E  E  E  E  E     Q    E  E  H          
--------------------------||--------------------------|----------------------| 
--------------------------||--------------------------|----------------------| 
--L----L-----------------*||--------------------------|--5-------5--L--------| 
--L----L-----------------*||--7-----------------7-----|--5-------5--L--------| 
--L----L--0--L--3--0--3---||--5--5--5--5--5--5--5-----|--5-------------------| 
--------------------------||--------------------------|----------------------| 
 
 
  Q    E  E  E  E  E  E     Q    E  E  E  E  E  E     E  E  E  E  E   E    
-------------------------|-------------------------|---------------------| 
-------------------------|-------------------------|---------------------| 
----------------------5--|--L----L-----------------|---------------------| 
--7----7--------7-----5--|--L----L-----------------|---------------------| 
--5----5--------5-----3--|--L----L--0--L--0--3-----|--------8--x--8p--7--| 
-------------------------|----------------------6--|--L--6---------------| 
 
 
  E  E   E  E   E  E  E  E     E  E  E  E  E   E     E  E   E  E   E  E  E  E    
----------------------------|---------------------|----------------------------| 
----------------------------|---------------------|----------------------------| 
----------------------------|---------------------|----------------------------| 
----------------------------|---------------------|----------------------------| 
--------10-----10--8--7-----|--------8--x--8p--7--|--------10-----10--8--7-----| 
--8--8-------------------8--|--6--6---------------|--8--8-------------------8--| 
 
 
  E  E  E  E  E   E     E  E   E  E   E  E  E  E     Q.     Q.      Q      
---------------------|----------------------------|----------------------| 
---------------------|----------------------------|----------------------| 
---------------------|----------------------------|----------------------| 
---------------------|----------------------------|----------------------| 
--------8--x--8p--7--|--------10-----10--8--7-----|--8------8------10----| 
--6--6---------------|--8--8-------------------8--|--6------6-------8----| 
 
 
                      PM PM PM PM PM PM PM                             
  W                   E  E  E  E  E  E  E  E     Q    E  E  H          
-------------------|--------------------------|----------------------| 
-------------------|--------------------------|----------------------| 
-------------------|--------------------------|--5-------5--L--------| 
-------------------|--7-----------------7-----|--5-------5--L--------| 
--L----------------|--5--5--5--5--5--5--5-----|--5-------------------| 
--L----------------|--------------------------|----------------------| 
 
 
                                                      PM PM PM PM PM PM PM      
  Q    E  E  E  E  E  E     Q    E  E  E  E  E  E     E  E  E  E  E  E  E  E    
-------------------------|-------------------------|--------------------------| 
-------------------------|-------------------------|--------------------------| 
----------------------5--|--L----L-----------------|--------------------------| 
--7----7--------7-----5--|--L----L-----------------|--7-----------------7-----| 
--5----5--------5-----3--|--L----L--0--L--3--0--3--|--5--5--5--5--5--5--5-----| 
-------------------------|-------------------------|--------------------------| 
 
 
  Q    E  E  H           Q    E  E  E  E  E  E     Q    E  E  E  E  E  E    
----------------------|-------------------------|-------------------------| 
----------------------|-------------------------|-------------------------| 
--5-------5--L--------|----------------------5--|--L----L-----------------| 
--5-------5--L--------|--7----7--------7-----5--|--L----L-----------------| 
--5-------------------|--5----5--------5-----3--|--L----L--0--L--0--3-----| 
----------------------|-------------------------|----------------------6--| 
 
 
  E  E  E  E  E   E     E  E   E  E   E  E  E  E     E  E  E  E  E   E    
---------------------|----------------------------|---------------------| 
---------------------|----------------------------|---------------------| 
---------------------|----------------------------|---------------------| 
---------------------|----------------------------|---------------------| 
--------8--x--8p--7--|--------10-----10--8--7-----|--------8--x--8p--7--| 
--L--6---------------|--8--8-------------------8--|--6--6---------------| 
 
 
  E  E   E  E   E  E  E  E     E  E  E  E  E   E     E  E   E  E   E  E  E  E    
----------------------------|---------------------|----------------------------| 
----------------------------|---------------------|----------------------------| 
----------------------------|---------------------|----------------------------| 
----------------------------|---------------------|----------------------------| 
--------10-----10--8--7-----|--------8--x--8p--7--|--------10-----10--8--7-----| 
--8--8-------------------8--|--6--6---------------|--8--8-------------------8--| 
 
 
  Q.     Q.      Q       W                     E  E  E  E  E  E  E  E    
----------------------|-------------------||---------------------------| 
----------------------|-------------------||---3--------3--------6-----| 
----------------------|-------------------||*--2--------3--------7-----| 
----------------------|-------------------||*-----0--0-----0--0-----0--| 
--8------8------10----|--L----------------||---------------------------| 
--6------6-------8----|--L----------------||---------------------------| 
 
 
  E  E  E  E  Q    E   E      E  E  E  E  E  E  E  E    
---------------------------|--------------------------| 
--5--------6--L------------|--3--------3-----6-----5--| 
--5--------7--L------------|--2--------3-----7-----5--| 
-----0--0----------0h--3b--|--0--0--0-----0-----0-----| 
---------------------------|--------------------------| 
---------------------------|--------------------------| 
 
 
       ^  PM                                              
  Q    E  E  S  S  E  E   E     E  E  E  E  E  E  E  E    
-----------------------------|--------------------------| 
--L----------5h-6p-5---------|--3--------3-----6--------| 
--L-------------------7p--5--|--2--------3-----7--------| 
-------7--7------------------|-----0--0-----0-----0--0--| 
-----------------------------|--------------------------| 
-----------------------------|--------------------------| 
 
 
  E  E  E  E  H           E  E  E  E  E  E  E  E     W                    
-----------------------|--------------------------|--------------------|| 
--5--------6--L--------|--------------------------|--------------------|| 
--5--------7--L--------|--------------------------|-------------------*|| 
-----0--0--------------|--7--7--L--3--3--L--5--5--|--L----------------*|| 
-----------------------|--5--5--L--1--1--L--3--3--|--L-----------------|| 
-----------------------|--------------------------|--------------------|| 
 
 
  E  E  E  E  E  E  E  E     W                   S S S S E  S S H          
--------------------------|-------------------|--------------------------| 
--------------------------|-------------------|--------------------------| 
--------------------------|-------------------|--------------------------| 
--7--7--L--3--3--L--5--5--|--L----------------|--7-7---5-7--5-7-L--------| 
--5--5--L--1--1--L--3--3--|--L----------------|--5-5---3-5--3-5-L--------| 
--------------------------|-------------------|--------------------------| 
 
 
  S S S S E  S S H           S S S S E  S S H          
--------------------------|--------------------------| 
--------------------------|--------------------------| 
--------------------------|--------------------------| 
--5-5---3-5--3-5-L--------|--3-3---3-3--3-3-L--------| 
--3-3---1-3--1-3-L--------|--1-1---1-1--1-1-L--------| 
--------------------------|--------------------------| 
 
 
  S S S S E  S S H           S S S S E  S S H          
--------------------------|--------------------------| 
--------------------------|--------------------------| 
--------------------------|--------------------------| 
--5-5---3-5--3-5-L--------|--7-7---5-7--5-7-L--------| 
--3-3---1-3--1-3-L--------|--5-5---3-5--3-5-L--------| 
--------------------------|--------------------------| 
 
 
  S S S S E  S S H           S S S S E  S S H          
--------------------------|--------------------------| 
--------------------------|--------------------------| 
--------------------------|--------------------------| 
--5-5---3-5--3-5-L--------|--3-3---3-3--3-3-L--------| 
--3-3---1-3--1-3-L--------|--1-1---1-1--1-1-L--------| 
--------------------------|--------------------------| 
 
 
  E  S S E  S S E  S S E  S S    E  S S E  S S E  S S E  S S   
------------------------------|------------------------------| 
------------------------------|------------------------------| 
------------------------------|------------------------------| 
------------------------------|------------------------------| 
--0--0-0-0--0-0-0--0-0-0--0-0-|--0--0-0-0--0-0-0--0-0-0--0-0-| 
------------------------------|------------------------------| 
 
 
     PM PM    PM PM    PM    PM    PM PM                   
  E  E  E  E  E  E  E  E     E  E  E  E  S  S  E  E   E    
--------------------------|------------------------------| 
--3--------3--------3-----|-----3--------5h-6p-5---------| 
--2--------3--------2-----|-----3-----------------7p--5--| 
-----0--0-----0--0-----0--|--0-----7--7------------------| 
--------------------------|------------------------------| 
--------------------------|------------------------------| 
 
 
     PM PM    PM PM    PM    PM    PM PM                   
  E  E  E  E  E  E  E  E     E  E  E  E  S  S  E  E   E    
--------------------------|------------------------------| 
--3--------3--------3-----|-----3--------5h-6p-5---------| 
--2--------3--------2-----|-----3-----------------7p--5--| 
-----0--0-----0--0-----0--|--0-----7--7------------------| 
--------------------------|------------------------------| 
--------------------------|------------------------------| 
 
 
  PM PM PM PM PM PM PM                                                       
  E  E  E  E  E  E  E  E     Q    E  E  H           Q    E  E  E  E  E  E    
--------------------------|----------------------|-------------------------| 
--------------------------|----------------------|-------------------------| 
--------------------------|--5-------5--L--------|----------------------5--| 
--7-----------------7-----|--5-------5--L--------|--7----7--------7-----5--| 
--5--5--5--5--5--5--5-----|--5-------------------|--5----5--------5-----3--| 
--------------------------|----------------------|-------------------------| 
 
 
                            PM PM PM PM PM PM PM                             
  Q    E  E  E  E  E  E     E  E  E  E  E  E  E  E     Q    E  E  H          
-------------------------|--------------------------|----------------------| 
-------------------------|--------------------------|----------------------| 
--L----L-----------------|--------------------------|--5-------5--L--------| 
--L----L-----------------|--7-----------------7-----|--5-------5--L--------| 
--L----L--0--L--3--0--3--|--5--5--5--5--5--5--5-----|--5-------------------| 
-------------------------|--------------------------|----------------------| 
 
 
  Q    E  E  E  E  E  E     Q    E  E  E  E  E  E     E  E  E  E  E   E    
-------------------------|-------------------------|---------------------| 
-------------------------|-------------------------|---------------------| 
----------------------5--|--L----L-----------------|---------------------| 
--7----7--------7-----5--|--L----L-----------------|---------------------| 
--5----5--------5-----3--|--L----L--0--L--0--3-----|--------8--x--8p--7--| 
-------------------------|----------------------6--|--L--6---------------| 
 
 
  E  E   E  E   E  E  E  E     E  E  E  E  E   E     E  E   E  E   E  E  E  E    
----------------------------|---------------------|----------------------------| 
----------------------------|---------------------|----------------------------| 
----------------------------|---------------------|----------------------------| 
----------------------------|---------------------|----------------------------| 
--------10-----10--8--7-----|--------8--x--8p--7--|--------10-----10--8--7-----| 
--8--8-------------------8--|--6--6---------------|--8--8-------------------8--| 
 
 
  E  E  E  E  E   E     E  E   E  E   E  E  E  E     Q.     Q.      Q      
---------------------|----------------------------|----------------------| 
---------------------|----------------------------|----------------------| 
---------------------|----------------------------|----------------------| 
---------------------|----------------------------|----------------------| 
--------8--x--8p--7--|--------10-----10--8--7-----|--8------8------10----| 
--6--6---------------|--8--8-------------------8--|--6------6-------8----| 
 
 
  W                     E  E  E  E  E  E  E  E     E  E  E  E  Q    E   E     
-------------------||---------------------------|---------------------------| 
-------------------||---3--------3--------6-----|--5--------6--L------------| 
-------------------||*--2--------3--------7-----|--5--------7--L------------| 
-------------------||*-----0--0-----0--0-----0--|-----0--0----------0h--3b--| 
--L----------------||---------------------------|---------------------------| 
--L----------------||---------------------------|---------------------------| 
 
 
                                  ^  PM                   
  E  E  E  E  E  E  E  E     Q    E  E  S  S  E  E   E    
--------------------------|-----------------------------| 
--3--------3-----6-----5--|--L----------5h-6p-5---------| 
--2--------3-----7-----5--|--L-------------------7p--5--| 
--0--0--0-----0-----0-----|-------7--7------------------| 
--------------------------|-----------------------------| 
--------------------------|-----------------------------| 
 
 
  E  E  E  E  E  E  E  E     E  E  E  E  H           E  E  E  E  E  E  E  E    
--------------------------|-----------------------|--------------------------| 
--3--------3-----6--------|--5--------6--L--------|--------------------------| 
--2--------3-----7--------|--5--------7--L--------|--------------------------| 
-----0--0-----0-----0--0--|-----0--0--------------|--7--7--L--3--3--L--5--5--| 
--------------------------|-----------------------|--5--5--L--1--1--L--3--3--| 
--------------------------|-----------------------|--------------------------| 
 
 
  W                     E  E  E  E  E  E  E  E     W                  
--------------------||--------------------------|-------------------| 
--------------------||--------------------------|-------------------| 
-------------------*||--------------------------|-------------------| 
--L----------------*||--7--7--L--3--3--L--5--5--|--L----------------| 
--L-----------------||--5--5--L--1--1--L--3--3--|--L----------------| 
--------------------||--------------------------|-------------------| 
 
 
  W                                       
-------------------|-------------------|| 
-------------------|-------------------|| 
-------------------|-------------------|| 
--7----------------|-------------------|| 
--5----------------|-------------------|| 
-------------------|-------------------|| 
 
 
Solo : 
-------|-------|------------------------------|------------------------------| 
-------|-------|------------------------------|------------------------------| 
-------|-------|--7--------L---5g7-7-9-10-10p-|---L-9p-7---------------------| 
-------|-------|------------------------------|----------10--L--------L--8-7-| 
-------|-------|------------------------------|------------------------------| 
-------|-------|------------------------------|------------------------------| 
 
 
  E.  S   H        Q       
-------------------------| 
-------------------------| 
------9b~-L--------9b----| 
--8----------------------| 
-------------------------| 
-------------------------| 
 
 
                     |---6---|  |--6--|   |------10----|  |------10----|   
  S   S  E   Q    E  T   T   T  T T   T   T  T T   T   T  T T   T   T  T   
-------------------------------------------------------------------------| 
-------------------------------------------------------------------------| 
--9br-7-----------------------------------------------------9h-12p-10p-9-| 
--------10---L----L----------------------------8h-12p-10p-8--------------| 
----------------------------------8h-12p-10p-8---------------------------| 
---------------------8h-12p-10p-8----------------------------------------| 
 
 
                        |---3---|                                                
   E.    S    H         E   E   E      E   T   T   S   S  S  E   Q    E   S  S   
-----------------------10--12--13--|--12--13p-12p-10h-12-----------------------| 
--13b---13pb~-L--------------------|---------------------13-13~--L----L--11-10-| 
-----------------------------------|-------------------------------------------| 
-----------------------------------|-------------------------------------------| 
-----------------------------------|-------------------------------------------| 
-----------------------------------|-------------------------------------------| 
 
 
   E   T  T  T  T T  T T  T T  T  T T  T  T  T T T  T T T  T T T T T T T T   
---------------------------------------------------------------------------| 
--11--11-10----------------------------------------------------------------| 
------------12-10-9----9-10-9----------------------------------------------| 
--------------------12--------12-10-8-10-12-10-8-7-10-8-7------------------| 
----------------------------------------------------------10-8-7-8-7-5-----| 
-----------------------------------------------------------------------8-6-| 
 
 
   |-----5-----|  |-----5-----|  |-----5-----|  |-----5-----|   
   S  S  S  S  S  S  S  S  S  S  S  S  S  S  S  S  S  S  S  S   
--------------------------------------------------------------| 
-----------------------------------------------14-15-17-15-14-| 
-----------------------------12-14-15-12-14-15----------------| 
-----------11-12-14-11-12-14----------------------------------| 
--10-12-13----------------------------------------------------| 
--------------------------------------------------------------| 
 
 
   Q.       E    H            W                      
--17b------17b~--L--------|--20brb~----------------| 
--------------------------|------------------------| 
--------------------------|------------------------| 
--------------------------|------------------------| 
--------------------------|------------------------| 
--------------------------|------------------------| 
 
 
  Q.      E   E   E   E   E        W                   W                  
--L--------------20---L--------|---L----------------|--L----------------| 
---------20b--L---L---L--20pb--|---L----------------|--L----------------| 
-------------------------------|--------------------|-------------------| 
-------------------------------|--------------------|-------------------| 
-------------------------------|--------------------|-------------------| 
-------------------------------|--------------------|-------------------| 
 
 
 
 
Duration Legend 
--------------- 
W - whole 
H - half 
Q - quarter 
E - 8th 
S - 16th 
T - 32nd 
X - 64th 
. - note dotted 
|-n-|  - n-tuplets 
 
 
Tablature Legend 
---------------- 
L - tied note 
x - dead note 
g - grace note 
(n) - ghost note 
> - accentuded note 
NH - natural harmonic 
AH - artificial harmonic 
TH - tapped harmonic 
SH - semi harmonic 
PH - pitch harmonic 
h - hammer on 
p - pull off 
b - bend 
br - bendRelease 
pb - preBend 
pbr - preBendRelease 
brb - bendReleaseBend 
\n/ - tremolo bar dip 
\n - tremolo bar dive 
-/n - tremolo bar Release up 
/n\ - tremolo bar inverted dip 
/n - tremolo bar return 
-\n - tremolo bar Release down 
S - shift slide 
s - legato slide 
/ -  slide into from below or out of upwards 
\ -  slide into from above or out of downwards 
~ - vibrato 
W - wide vibrato 
tr - trill 
TP - tremolo picking 
T - tapping 
S - slap 
P - pop 
< - fade in 
^ - brush up 
v - brush down 
 

		  

See also:

tabs Oficina G3 - A Lição tabs Atmosfera de Adoração - Aleluia tabs Fernanda Brum - Espírto Santo tabs Aline Barros - sonda-me, usa-me tabs Lázaro - Eu Te Amo Tanto tabs Oficina G3 - A Lição (versão detalhada)
e-chords

Other versions:

tabs Katsbarnea - Apocalipse tabs Metal Nobre - Apocalipse tabs Metal Nobre - Apocalipse (Completa)
auto scroll beats size up size down change color hide chords drawings
tab show chords e-chords YouTube Clip e-chords hide all tabs e-chords go to top tab

share