Matchbook Romance

I Wish You Were Here

Matchbook Romance

tabs Expert expert

by  HELENA_2892

save to print version add songbook text version e-mail correct tuner
chordsukulelecavacokeyboardtabbassdrumsharmonicaflute Guitar Pro
close

there isn't a video lesson for this song

chords

I Wish You Were Here

	  		Verse 1 
E--9-6-----9-6----9-6-----9-6----1------------1------------------------------| 
B------7-------7------7-------7----1h2-4p2------1h2-4p2----------------------| 
G----------------------------------------------------------------------------| 
D----------------------------------------------------------------------------| 
A----------------------------------------------------------------------------| 
E----------------------------------------------------------------------------| 

E--1------------1-------6-------6------6------6------2------2----------------| 
B---1h2-4p2----1h2-4p2----7------7------7------7------4------4---------------| 
G---------------------------6------6------6------6------4-----4--------------| 
D----------------------------------------------------------------------------| 
A----------------------------------------------------------------------------| 
E----------------------------------------------------------------------------| 

E--4------4------9-6-----9-6----11-9-6-----9-6----1--------------------------| 
B----6------6--------7-------7---------7-------7----1h2-4p2------------------| 
G------6------6--------------------------------------------------------------| 
D----------------------------------------------------------------------------| 
A----------------------------------------------------------------------------| 
E----------------------------------------------------------------------------| 

E--1------------1-------------1---------6-------6------7-6-------------------| 
B----1h2-4p2-----1h2-4p2-------1h2-4p2----7------7---------7-----------------| 
G-------------------------------------------6------6---------6---------------| 
D----------------------------------------------------------------------------| 
A----------------------------------------------------------------------------| 
E----------------------------------------------------------------------------| 

E--6------2------2------4------4---------------------------------------------| 
B----7------4------4------6------6-------------------------------------------| 
G------6------4------4------6------6-----------------------------------------| 
D----------------------------------------------------------------------------| 
A----------------------------------------------------------------------------| 
E----------------------------------------------------------------------------| 

Chorus 
E--6------4------2------2------2------2------4------4------------------------| 
B----7------6------4------4------4------4------6------6----(6)---------------| 
G------6------6------4------4------4------4------6------6------(6)-----------| 
D----------------------------------------------------------------------------| 
A----------------------------------------------------------------------------| 
E----------------------------------------------------------------------------| 

E--4------4------------------------------------------------------------------| 
B----6------6----6-6-6-7/9--4---4---4----6-6-6-7/9--4----4----4--------------| 
G------6------6---------------8---8---8---------------8----8----8------------| 
D----------------------------------------------------------------------------| 
A----------------------------------------------------------------------------| 
E----------------------------------------------------------------------------| 

E----------------------------------------------------------------------------| 
B--6-6-6-7/9--4---4---4----6-6-6-7/9--4----4----4----------------------------| 
G--------------8---8---8---------------8----8----8---------------------------| 
D----------------------------------------------------------------------------| 
A----------------------------------------------------------------------------| 
E----------------------------------------------------------------------------| 

Verse 2 
E--9-6-----9-6----9-6-----11-9-6----1----------1-----------------------------| 
B------7-------7------7----------7----1h2-4p2----1h2-4p2---------------------| 
G----------------------------------------------------------------------------| 
D----------------------------------------------------------------------------| 
A----------------------------------------------------------------------------| 
E----------------------------------------------------------------------------| 

E--1----------1----------6-------6------7-6------6------2------2-------------| 
B----1h2-4p2----1h2-4p2----7-------7--------7------7------4------4-----------| 
G----------------------------6-------6--------6------6------4------4---------| 
D----------------------------------------------------------------------------| 
A----------------------------------------------------------------------------| 
E----------------------------------------------------------------------------| 

E--4------4------9-6-----9-6----11-9-6-----9-6----1--------------------------| 
B----6------6--------7-------7---------7-------7----1h2-4p2------------------| 
G------6------6--------------------------------------------------------------| 
D----------------------------------------------------------------------------| 
A----------------------------------------------------------------------------| 
E----------------------------------------------------------------------------| 

E--1----------1----------1----------6-------6-------6------------------------| 
B----1h2-4p2----1h2-4p2----1h2-4p2----7------7--------7----------------------| 
G---------------------------------------6------6--------6--------------------| 
D----------------------------------------------------------------------------| 
A----------------------------------------------------------------------------| 
E----------------------------------------------------------------------------| 

E--7-6-------2-------2-------4-------4---------------------------------------| 
B------7-------4-------4-------6-------6-------------------------------------| 
G--------6-------4-------4-------6-------6-----------------------------------| 
D----------------------------------------------------------------------------| 
A----------------------------------------------------------------------------| 
E----------------------------------------------------------------------------| 

Chorus 
E--6------4------2------2------------2-------2-------4-------4---------------| 
B----7------6------4------4----4-------4-------4-------6-------6-------------| 
G------6------6------4------4----4-------4-------4-------6-------6-----------| 
D----------------------------------------------------------------------------| 
A----------------------------------------------------------------------------| 
E----------------------------------------------------------------------------| 

E--4------4------6------4------2------2------------2-------2-----------------| 
B----6------6------7------6------4------4----4-------4-------4---------------| 
G------6------6------6------6------4------4----4-------4-------4-------------| 
D----------------------------------------------------------------------------| 
A----------------------------------------------------------------------------| 
E----------------------------------------------------------------------------| 

E--4------4------------4-------4---------------------------------------------| 
B----6------6----6-------6-------6----6-6-6-7/9--4---4---4-------------------| 
G------6------6----6-------6-------6---------------8---8---8-----------------| 
D----------------------------------------------------------------------------| 
A----------------------------------------------------------------------------| 
E----------------------------------------------------------------------------| 

E----------------------------------------------------------------------------| 
B--6-6-6-7/9--4---4---4----6-6-6-7/9--4----4----4----------------------------| 
G--------------8---8---8---------------8----8----8---------------------------| 
D----------------------------------------------------------------------------| 
A----------------------------------------------------------------------------| 
E----------------------------------------------------------------------------| 

E----------------------------------------------------------------------------| 
B--6-6-6-7/9--4---4---4------------------------------------------------------| 
G---------------8---8---8----------------------------------------------------| 
D----------------------------------------------------------------------------| 
A----------------------------------------------------------------------------| 
E----------------------------------------------------------------------------| 


		  

See also:

tabs Blink 182 - First Date tabs Blink 182 - What's My Age Again? tabs Blink 182 - Dammit tabs Ramones - Blitzkrieg Bop tabs Green Day - Basket Case (ver. 2) tabs Blink 182 - Down
e-chords

Other versions:

tabs Incubus - I Wish You Were Here tabs Matchbook Romance - I Wish You Were Here
auto scroll beats size up size down change color hide chords drawings
tab show chords e-chords YouTube Clip e-chords hide all tabs e-chords go to top tab

share